  0
SECTION
  2
HEADER
  9
$ACADVER
  1
AC1027
  9
$ACADMAINTVER
 70
   125
  9
$DWGCODEPAGE
  3
ANSI_1252
  9
$LASTSAVEDBY
  1
Pinomelean
  9
$REQUIREDVERSIONS
160
                 0
  9
$INSBASE
 10
0.0
 20
0.0
 30
0.0
  9
$EXTMIN
 10
-49.43000196541676
 20
-2.482821982120941
 30
0.0
  9
$EXTMAX
 10
305.2537254747879
 20
88.99181142800387
 30
0.0
  9
$LIMMIN
 10
0.0
 20
0.0
  9
$LIMMAX
 10
420.0
 20
297.0
  9
$ORTHOMODE
 70
     0
  9
$REGENMODE
 70
     1
  9
$FILLMODE
 70
     1
  9
$QTEXTMODE
 70
     0
  9
$MIRRTEXT
 70
     0
  9
$LTSCALE
 40
1.0
  9
$ATTMODE
 70
     1
  9
$TEXTSIZE
 40
2.5
  9
$TRACEWID
 40
1.0
  9
$TEXTSTYLE
  7
STANDARD
  9
$CLAYER
  8
0
  9
$CELTYPE
  6
ByLayer
  9
$CECOLOR
 62
   256
  9
$CELTSCALE
 40
1.0
  9
$DISPSILH
 70
     0
  9
$DIMSCALE
 40
1.0
  9
$DIMASZ
 40
2.5
  9
$DIMEXO
 40
0.625
  9
$DIMDLI
 40
3.75
  9
$DIMRND
 40
0.0
  9
$DIMDLE
 40
0.0
  9
$DIMEXE
 40
1.25
  9
$DIMTP
 40
0.0
  9
$DIMTM
 40
0.0
  9
$DIMTXT
 40
2.5
  9
$DIMCEN
 40
2.5
  9
$DIMTSZ
 40
0.0
  9
$DIMTOL
 70
     0
  9
$DIMLIM
 70
     0
  9
$DIMTIH
 70
     0
  9
$DIMTOH
 70
     0
  9
$DIMSE1
 70
     0
  9
$DIMSE2
 70
     0
  9
$DIMTAD
 70
     1
  9
$DIMZIN
 70
     8
  9
$DIMBLK
  1

  9
$DIMASO
 70
     1
  9
$DIMSHO
 70
     1
  9
$DIMPOST
  1

  9
$DIMAPOST
  1

  9
$DIMALT
 70
     0
  9
$DIMALTD
 70
     3
  9
$DIMALTF
 40
0.03937007874016
  9
$DIMLFAC
 40
1.0
  9
$DIMTOFL
 70
     1
  9
$DIMTVP
 40
0.0
  9
$DIMTIX
 70
     0
  9
$DIMSOXD
 70
     0
  9
$DIMSAH
 70
     0
  9
$DIMBLK1
  1

  9
$DIMBLK2
  1

  9
$DIMSTYLE
  2
ISO-25
  9
$DIMCLRD
 70
     0
  9
$DIMCLRE
 70
     0
  9
$DIMCLRT
 70
     0
  9
$DIMTFAC
 40
1.0
  9
$DIMGAP
 40
0.625
  9
$DIMJUST
 70
     0
  9
$DIMSD1
 70
     0
  9
$DIMSD2
 70
     0
  9
$DIMTOLJ
 70
     1
  9
$DIMTZIN
 70
     0
  9
$DIMALTZ
 70
     0
  9
$DIMALTTZ
 70
     0
  9
$DIMUPT
 70
     0
  9
$DIMDEC
 70
     4
  9
$DIMTDEC
 70
     4
  9
$DIMALTU
 70
     2
  9
$DIMALTTD
 70
     2
  9
$DIMTXSTY
  7
STANDARD
  9
$DIMAUNIT
 70
     0
  9
$DIMADEC
 70
     0
  9
$DIMALTRND
 40
0.0
  9
$DIMAZIN
 70
     0
  9
$DIMDSEP
 70
    46
  9
$DIMATFIT
 70
     3
  9
$DIMFRAC
 70
     0
  9
$DIMLDRBLK
  1

  9
$DIMLUNIT
 70
     2
  9
$DIMLWD
 70
    -2
  9
$DIMLWE
 70
    -2
  9
$DIMTMOVE
 70
     0
  9
$DIMFXL
 40
1.0
  9
$DIMFXLON
 70
     0
  9
$DIMJOGANG
 40
0.7853981633974483
  9
$DIMTFILL
 70
     0
  9
$DIMTFILLCLR
 70
     0
  9
$DIMARCSYM
 70
     0
  9
$DIMLTYPE
  6

  9
$DIMLTEX1
  6

  9
$DIMLTEX2
  6

  9
$DIMTXTDIRECTION
 70
     0
  9
$LUNITS
 70
     2
  9
$LUPREC
 70
     4
  9
$SKETCHINC
 40
1.0
  9
$FILLETRAD
 40
0.5
  9
$AUNITS
 70
     0
  9
$AUPREC
 70
     0
  9
$MENU
  1
.
  9
$ELEVATION
 40
0.0
  9
$PELEVATION
 40
0.0
  9
$THICKNESS
 40
0.0
  9
$LIMCHECK
 70
     0
  9
$CHAMFERA
 40
0.0
  9
$CHAMFERB
 40
0.0
  9
$CHAMFERC
 40
0.0
  9
$CHAMFERD
 40
0.0
  9
$SKPOLY
 70
     0
  9
$TDCREATE
 40
2457792.538483796
  9
$TDUCREATE
 40
2457792.496817130
  9
$TDUPDATE
 40
2457850.505833333
  9
$TDUUPDATE
 40
2457850.464166667
  9
$TDINDWG
 40
0.0311458333
  9
$TDUSRTIMER
 40
0.0311458333
  9
$USRTIMER
 70
     1
  9
$ANGBASE
 50
0.0
  9
$ANGDIR
 70
     0
  9
$PDMODE
 70
     0
  9
$PDSIZE
 40
0.0
  9
$PLINEWID
 40
0.0
  9
$SPLFRAME
 70
     0
  9
$SPLINETYPE
 70
     6
  9
$SPLINESEGS
 70
     8
  9
$HANDSEED
  5
99F
  9
$SURFTAB1
 70
     6
  9
$SURFTAB2
 70
     6
  9
$SURFTYPE
 70
     6
  9
$SURFU
 70
     6
  9
$SURFV
 70
     6
  9
$UCSBASE
  2

  9
$UCSNAME
  2

  9
$UCSORG
 10
0.0
 20
0.0
 30
0.0
  9
$UCSXDIR
 10
1.0
 20
0.0
 30
0.0
  9
$UCSYDIR
 10
0.0
 20
1.0
 30
0.0
  9
$UCSORTHOREF
  2

  9
$UCSORTHOVIEW
 70
     0
  9
$UCSORGTOP
 10
0.0
 20
0.0
 30
0.0
  9
$UCSORGBOTTOM
 10
0.0
 20
0.0
 30
0.0
  9
$UCSORGLEFT
 10
0.0
 20
0.0
 30
0.0
  9
$UCSORGRIGHT
 10
0.0
 20
0.0
 30
0.0
  9
$UCSORGFRONT
 10
0.0
 20
0.0
 30
0.0
  9
$UCSORGBACK
 10
0.0
 20
0.0
 30
0.0
  9
$PUCSBASE
  2

  9
$PUCSNAME
  2

  9
$PUCSORG
 10
0.0
 20
0.0
 30
0.0
  9
$PUCSXDIR
 10
1.0
 20
0.0
 30
0.0
  9
$PUCSYDIR
 10
0.0
 20
1.0
 30
0.0
  9
$PUCSORTHOREF
  2

  9
$PUCSORTHOVIEW
 70
     0
  9
$PUCSORGTOP
 10
0.0
 20
0.0
 30
0.0
  9
$PUCSORGBOTTOM
 10
0.0
 20
0.0
 30
0.0
  9
$PUCSORGLEFT
 10
0.0
 20
0.0
 30
0.0
  9
$PUCSORGRIGHT
 10
0.0
 20
0.0
 30
0.0
  9
$PUCSORGFRONT
 10
0.0
 20
0.0
 30
0.0
  9
$PUCSORGBACK
 10
0.0
 20
0.0
 30
0.0
  9
$USERI1
 70
     0
  9
$USERI2
 70
     0
  9
$USERI3
 70
     0
  9
$USERI4
 70
     0
  9
$USERI5
 70
     0
  9
$USERR1
 40
0.0
  9
$USERR2
 40
0.0
  9
$USERR3
 40
0.0
  9
$USERR4
 40
0.0
  9
$USERR5
 40
0.0
  9
$WORLDVIEW
 70
     1
  9
$SHADEDGE
 70
     3
  9
$SHADEDIF
 70
    70
  9
$TILEMODE
 70
     1
  9
$MAXACTVP
 70
    64
  9
$PINSBASE
 10
0.0
 20
0.0
 30
0.0
  9
$PLIMCHECK
 70
     0
  9
$PEXTMIN
 10
1.000000000000000E+20
 20
1.000000000000000E+20
 30
1.000000000000000E+20
  9
$PEXTMAX
 10
-1.000000000000000E+20
 20
-1.000000000000000E+20
 30
-1.000000000000000E+20
  9
$PLIMMIN
 10
0.0
 20
0.0
  9
$PLIMMAX
 10
420.0
 20
297.0
  9
$UNITMODE
 70
     0
  9
$VISRETAIN
 70
     1
  9
$PLINEGEN
 70
     0
  9
$PSLTSCALE
 70
     1
  9
$TREEDEPTH
 70
  3020
  9
$CMLSTYLE
  2
Standard
  9
$CMLJUST
 70
     0
  9
$CMLSCALE
 40
1.0
  9
$PROXYGRAPHICS
 70
     1
  9
$MEASUREMENT
 70
     0
  9
$CELWEIGHT
370
    -1
  9
$ENDCAPS
280
     0
  9
$JOINSTYLE
280
     0
  9
$LWDISPLAY
290
     0
  9
$INSUNITS
 70
     0
  9
$HYPERLINKBASE
  1

  9
$STYLESHEET
  1

  9
$XEDIT
290
     1
  9
$CEPSNTYPE
380
     0
  9
$PSTYLEMODE
290
     1
  9
$FINGERPRINTGUID
  2
{C858FEA8-9EAA-1A43-9B99-E3829357564B}
  9
$VERSIONGUID
  2
{19F2D421-3868-9E4D-A237-9539610D8282}
  9
$EXTNAMES
290
     1
  9
$PSVPSCALE
 40
0.0
  9
$OLESTARTUP
290
     0
  9
$SORTENTS
280
   127
  9
$INDEXCTL
280
     0
  9
$HIDETEXT
280
     0
  9
$XCLIPFRAME
280
     2
  9
$HALOGAP
280
     0
  9
$OBSCOLOR
 70
   257
  9
$OBSLTYPE
280
     0
  9
$INTERSECTIONDISPLAY
280
     0
  9
$INTERSECTIONCOLOR
 70
   257
  9
$DIMASSOC
280
     1
  9
$PROJECTNAME
  1

  9
$CAMERADISPLAY
290
     0
  9
$LENSLENGTH
 40
50.0
  9
$CAMERAHEIGHT
 40
0.0
  9
$STEPSPERSEC
 40
2.0
  9
$STEPSIZE
 40
6.0
  9
$3DDWFPREC
 40
2.0
  9
$PSOLWIDTH
 40
0.25
  9
$PSOLHEIGHT
 40
4.0
  9
$LOFTANG1
 40
1.570796326794896
  9
$LOFTANG2
 40
1.570796326794896
  9
$LOFTMAG1
 40
0.0
  9
$LOFTMAG2
 40
0.0
  9
$LOFTPARAM
 70
     7
  9
$LOFTNORMALS
280
     1
  9
$LATITUDE
 40
37.795
  9
$LONGITUDE
 40
-122.394
  9
$NORTHDIRECTION
 40
0.0
  9
$TIMEZONE
 70
 -8000
  9
$LIGHTGLYPHDISPLAY
280
     1
  9
$TILEMODELIGHTSYNCH
280
     1
  9
$CMATERIAL
347
106
  9
$SOLIDHIST
280
     0
  9
$SHOWHIST
280
     1
  9
$DWFFRAME
280
     2
  9
$DGNFRAME
280
     0
  9
$REALWORLDSCALE
290
     1
  9
$INTERFERECOLOR
 62
     1
  9
$INTERFEREOBJVS
345
128
  9
$INTERFEREVPVS
346
125
  9
$CSHADOW
280
     0
  9
$SHADOWPLANELOCATION
 40
0.0
  0
ENDSEC
  0
SECTION
  2
CLASSES
  0
CLASS
  1
ACDBDICTIONARYWDFLT
  2
AcDbDictionaryWithDefault
  3
ObjectDBX Classes
 90
        0
 91
        1
280
     0
281
     0
  0
CLASS
  1
MATERIAL
  2
AcDbMaterial
  3
ObjectDBX Classes
 90
     1153
 91
        3
280
     0
281
     0
  0
CLASS
  1
VISUALSTYLE
  2
AcDbVisualStyle
  3
ObjectDBX Classes
 90
     4095
 91
       24
280
     0
281
     0
  0
CLASS
  1
SCALE
  2
AcDbScale
  3
ObjectDBX Classes
 90
     1153
 91
       17
280
     0
281
     0
  0
CLASS
  1
TABLESTYLE
  2
AcDbTableStyle
  3
ObjectDBX Classes
 90
     4095
 91
        1
280
     0
281
     0
  0
CLASS
  1
MLEADERSTYLE
  2
AcDbMLeaderStyle
  3
ACDB_MLEADERSTYLE_CLASS
 90
     4095
 91
        1
280
     0
281
     0
  0
CLASS
  1
ACDBSECTIONVIEWSTYLE
  2
AcDbSectionViewStyle
  3
ObjectDBX Classes
 90
     1025
 91
        1
280
     0
281
     0
  0
CLASS
  1
ACDBDETAILVIEWSTYLE
  2
AcDbDetailViewStyle
  3
ObjectDBX Classes
 90
     1025
 91
        1
280
     0
281
     0
  0
CLASS
  1
SORTENTSTABLE
  2
AcDbSortentsTable
  3
ObjectDBX Classes
 90
        0
 91
        2
280
     0
281
     0
  0
CLASS
  1
DICTIONARYVAR
  2
AcDbDictionaryVar
  3
ObjectDBX Classes
 90
        0
 91
        9
280
     0
281
     0
  0
CLASS
  1
ACARRAYJIGENTITY
  2
AcArrayJigEntity
  3
ACAD_ARRAY
 90
      129
 91
        0
280
     0
281
     1
  0
CLASS
  1
ACDBASSOCNETWORK
  2
AcDbAssocNetwork
  3
ObjectDBX Classes
 90
     1025
 91
        0
280
     0
281
     0
  0
CLASS
  1
ACDBASSOCACTION
  2
AcDbAssocAction
  3
ObjectDBX Classes
 90
     1025
 91
        0
280
     0
281
     0
  0
CLASS
  1
ACDBASSOCARRAYACTIONBODY
  2
AcDbAssocArrayActionBody
  3
ObjectDBX Classes
 90
     1025
 91
        0
280
     0
281
     0
  0
CLASS
  1
ACDBASSOCVERTEXACTIONPARAM
  2
AcDbAssocVertexActionParam
  3
ObjectDBX Classes
 90
     1025
 91
        0
280
     0
281
     0
  0
CLASS
  1
ACDBASSOCDEPENDENCY
  2
AcDbAssocDependency
  3
ObjectDBX Classes
 90
     1025
 91
        0
280
     0
281
     0
  0
CLASS
  1
ACDBASSOCARRAYRECTANGULARPARAMETERS
  2
AcDbAssocArrayRectangularParameters
  3
ObjectDBX Classes
 90
     1025
 91
        0
280
     0
281
     0
  0
CLASS
  1
CELLSTYLEMAP
  2
AcDbCellStyleMap
  3
ObjectDBX Classes
 90
     1152
 91
        2
280
     0
281
     0
  0
ENDSEC
  0
SECTION
  2
TABLES
  0
TABLE
  2
VPORT
  5
FD
330
0
100
AcDbSymbolTable
 70
     1
1001
ACAD
1000
DbSaveVer
1071
        5
  0
VPORT
  5
168
330
FD
100
AcDbSymbolTableRecord
100
AcDbViewportTableRecord
  2
*ACTIVE
 70
     0
 10
0.0
 20
0.0
 11
1.0
 21
1.0
 12
152.064567360036
 22
22.89030371806983
 13
0.0
 23
0.0
 14
10.0
 24
10.0
 15
10.0
 25
10.0
 16
0.0
 26
0.0
 36
1.0
 17
0.0
 27
0.0
 37
0.0
 40
251.1089990504586
 41
2.189003436426117
 42
50.0
 43
0.0
 44
0.0
 50
0.0
 51
0.0
 71
     0
 72
  1000
 73
     1
 74
     3
 75
     0
 76
     0
 77
     0
 78
     0
281
     0
 65
     1
110
0.0
120
0.0
130
0.0
111
1.0
121
0.0
131
0.0
112
0.0
122
1.0
132
0.0
 79
     0
146
0.0
348
124
 60
     3
 61
     5
292
     1
282
     0
141
0.0
142
0.0
 63
   250
421
  3355443
1001
ACAD_NAV_VCDISPLAY
1070
     3
  0
ENDTAB
  0
TABLE
  2
LTYPE
  5
FA
330
0
100
AcDbSymbolTable
 70
     2
  0
LTYPE
  5
14F
330
FA
100
AcDbSymbolTableRecord
100
AcDbLinetypeTableRecord
  2
ByBlock
 70
     0
  3

 72
    65
 73
     0
 40
0.0
  0
LTYPE
  5
150
330
FA
100
AcDbSymbolTableRecord
100
AcDbLinetypeTableRecord
  2
ByLayer
 70
     0
  3

 72
    65
 73
     0
 40
0.0
  0
LTYPE
  5
151
330
FA
100
AcDbSymbolTableRecord
100
AcDbLinetypeTableRecord
  2
CONTINUOUS
 70
     0
  3
Solid line
 72
    65
 73
     0
 40
0.0
  0
ENDTAB
  0
TABLE
  2
LAYER
  5
F7
330
0
100
AcDbSymbolTable
 70
     1
  0
LAYER
  5
149
102
{ACAD_XDICTIONARY
360
812
102
}
330
F7
100
AcDbSymbolTableRecord
100
AcDbLayerTableRecord
  2
0
 70
     0
 62
     7
  6
CONTINUOUS
370
    -3
390
104
347
116
348
0
  0
ENDTAB
  0
TABLE
  2
STYLE
  5
F8
330
0
100
AcDbSymbolTable
 70
     2
  0
STYLE
  5
14A
330
F8
100
AcDbSymbolTableRecord
100
AcDbTextStyleTableRecord
  2
STANDARD
 70
     0
 40
0.0
 41
1.0
 50
0.0
 71
     0
 42
2.5
  3
txt
  4

  0
STYLE
  5
14E
330
F8
100
AcDbSymbolTableRecord
100
AcDbTextStyleTableRecord
  2
ANNOTATIVE
 70
     0
 40
0.0
 41
1.0
 50
0.0
 71
     0
 42
0.2
  3
txt
  4

1001
ACADANNOTATIVE
1000
AnnotativeData
1002
{
1070
     1
1070
     1
1002
}
  0
ENDTAB
  0
TABLE
  2
VIEW
  5
FB
330
0
100
AcDbSymbolTable
 70
     0
  0
ENDTAB
  0
TABLE
  2
UCS
  5
FC
330
0
100
AcDbSymbolTable
 70
     0
  0
ENDTAB
  0
TABLE
  2
APPID
  5
FE
330
0
100
AcDbSymbolTable
 70
     6
  0
APPID
  5
14B
330
FE
100
AcDbSymbolTableRecord
100
AcDbRegAppTableRecord
  2
ACAD
 70
     0
  0
APPID
  5
152
330
FE
100
AcDbSymbolTableRecord
100
AcDbRegAppTableRecord
  2
ACADANNOTATIVE
 70
     0
  0
APPID
  5
169
330
FE
100
AcDbSymbolTableRecord
100
AcDbRegAppTableRecord
  2
ACAD_NAV_VCDISPLAY
 70
     0
  0
APPID
  5
16A
330
FE
100
AcDbSymbolTableRecord
100
AcDbRegAppTableRecord
  2
ACAD_MLEADERVER
 70
     0
  0
APPID
  5
174
330
FE
100
AcDbSymbolTableRecord
100
AcDbRegAppTableRecord
  2
ACAD_EXEMPT_FROM_CAD_STANDARDS
 70
     0
  0
APPID
  5
180
330
FE
100
AcDbSymbolTableRecord
100
AcDbRegAppTableRecord
  2
ACAD_DSTYLE_DIMRADIAL_EXTENSION
 70
     0
  0
ENDTAB
  0
TABLE
  2
DIMSTYLE
  5
FF
330
0
100
AcDbSymbolTable
 70
     4
100
AcDbDimStyleTable
 71
     1
340
16B
  0
DIMSTYLE
105
14C
330
FF
100
AcDbSymbolTableRecord
100
AcDbDimStyleTableRecord
  2
Standard
 70
     0
340
14A
  0
DIMSTYLE
105
14D
330
FF
100
AcDbSymbolTableRecord
100
AcDbDimStyleTableRecord
  2
ANNOTATIVE
 70
     0
274
     3
279
     2
284
     8
285
     8
286
     8
340
14A
1001
ACADANNOTATIVE
1000
AnnotativeData
1002
{
1070
     1
1070
     1
1002
}
  0
DIMSTYLE
105
16B
330
FF
100
AcDbSymbolTableRecord
100
AcDbDimStyleTableRecord
  2
ISO-25
 70
     0
 41
2.5
 42
0.625
 43
3.75
 44
1.25
 73
     0
 74
     0
 77
     1
 78
     8
140
2.5
141
2.5
143
0.03937007874016
147
0.625
171
     3
172
     1
274
     3
279
     2
284
     8
285
     8
286
     8
340
14A
  0
ENDTAB
  0
TABLE
  2
BLOCK_RECORD
  5
F6
330
0
100
AcDbSymbolTable
 70
     5
  0
BLOCK_RECORD
  5
164
102
{ACAD_XDICTIONARY
360
17D
102
}
330
F6
100
AcDbSymbolTableRecord
100
AcDbBlockTableRecord
  2
*Model_Space
340
167
 70
     0
280
     1
281
     0
  0
BLOCK_RECORD
  5
160
330
F6
100
AcDbSymbolTableRecord
100
AcDbBlockTableRecord
  2
*Paper_Space
340
163
 70
     0
280
     1
281
     0
  0
BLOCK_RECORD
  5
16D
330
F6
100
AcDbSymbolTableRecord
100
AcDbBlockTableRecord
  2
$MODEL_SPACE
340
0
 70
     0
280
     1
281
     0
  0
BLOCK_RECORD
  5
16F
330
F6
100
AcDbSymbolTableRecord
100
AcDbBlockTableRecord
  2
$PAPER_SPACE
340
0
 70
     0
280
     1
281
     0
  0
BLOCK_RECORD
  5
87B
330
F6
100
AcDbSymbolTableRecord
100
AcDbBlockTableRecord
  2
A$C335A21B3
340
0
 70
     0
280
     1
281
     0
  0
ENDTAB
  0
ENDSEC
  0
SECTION
  2
BLOCKS
  0
BLOCK
  5
165
330
164
100
AcDbEntity
  8
0
100
AcDbBlockBegin
  2
*Model_Space
 70
     0
 10
0.0
 20
0.0
 30
0.0
  3
*Model_Space
  1

  0
ENDBLK
  5
166
330
164
100
AcDbEntity
  8
0
100
AcDbBlockEnd
  0
BLOCK
  5
161
330
160
100
AcDbEntity
 67
     1
  8
0
100
AcDbBlockBegin
  2
*Paper_Space
 70
     0
 10
0.0
 20
0.0
 30
0.0
  3
*Paper_Space
  1

  0
ENDBLK
  5
162
330
160
100
AcDbEntity
 67
     1
  8
0
100
AcDbBlockEnd
  0
BLOCK
  5
16E
330
16D
100
AcDbEntity
  8
0
100
AcDbBlockBegin
  2
$MODEL_SPACE
 70
     0
 10
0.0
 20
0.0
 30
0.0
  3
$MODEL_SPACE
  1

  0
ENDBLK
  5
72
330
16D
100
AcDbEntity
  8
0
100
AcDbBlockEnd
  0
BLOCK
  5
170
330
16F
100
AcDbEntity
  8
0
100
AcDbBlockBegin
  2
$PAPER_SPACE
 70
     0
 10
0.0
 20
0.0
 30
0.0
  3
$PAPER_SPACE
  1

  0
ENDBLK
  5
6E
330
16F
100
AcDbEntity
  8
0
100
AcDbBlockEnd
  0
BLOCK
  5
884
330
87B
100
AcDbEntity
  8
0
100
AcDbBlockBegin
  2
A$C335A21B3
 70
     0
 10
0.0
 20
0.0
 30
0.0
  3
A$C335A21B3
  1

  0
LWPOLYLINE
  5
87C
330
87B
100
AcDbEntity
  8
0
100
AcDbPolyline
 90
       12
 70
     1
 43
0.0
 10
28.24999967222691
 20
25.89711417756328
 10
22.24999967222692
 20
29.36121579270105
 42
0.2679491924311226
 10
21.74999967222693
 20
29.36121579270105
 10
15.74999967222692
 20
25.89711417756328
 42
0.2679491924311224
 10
15.49999967222693
 20
25.46410147567107
 10
15.49999967222693
 20
18.53589824539554
 42
0.2679491924311224
 10
15.7499996722269
 20
18.10288554350336
 10
21.74999967222691
 20
14.63878392836555
 42
0.2679491924311228
 10
22.24999967222692
 20
14.63878392836555
 10
28.24999967222691
 20
18.10288554350336
 42
0.2679491924311226
 10
28.4999996722269
 20
18.53589824539554
 10
28.4999996722269
 20
25.46410147567107
 42
0.2679491924311228
  0
CIRCLE
  5
87D
330
87B
100
AcDbEntity
  8
0
100
AcDbCircle
 10
21.99999967222693
 20
21.99999986053325
 30
0.0
 40
22.0
  0
CIRCLE
  5
87E
330
87B
100
AcDbEntity
  8
0
100
AcDbCircle
 10
38.9999996722269
 20
21.99999986053325
 30
0.0
 40
2.1
  0
CIRCLE
  5
87F
330
87B
100
AcDbEntity
  8
0
100
AcDbCircle
 10
4.99999967222692
 20
21.99999986053325
 30
0.0
 40
2.1
  0
CIRCLE
  5
880
330
87B
100
AcDbEntity
  8
0
100
AcDbCircle
 10
30.49999967222691
 20
36.72243172486879
 30
0.0
 40
2.1
  0
CIRCLE
  5
881
330
87B
100
AcDbEntity
  8
0
100
AcDbCircle
 10
13.49999967222693
 20
36.72243172486879
 30
0.0
 40
2.1
  0
CIRCLE
  5
882
330
87B
100
AcDbEntity
  8
0
100
AcDbCircle
 10
13.49999967222693
 20
7.277567996197873
 30
0.0
 40
2.1
  0
CIRCLE
  5
883
330
87B
100
AcDbEntity
  8
0
100
AcDbCircle
 10
30.49999967222691
 20
7.27756799619776
 30
0.0
 40
2.1
  0
ENDBLK
  5
885
330
87B
100
AcDbEntity
  8
0
100
AcDbBlockEnd
  0
ENDSEC
  0
SECTION
  2
ENTITIES
  0
CIRCLE
  5
97
330
164
100
AcDbEntity
  8
0
100
AcDbCircle
 10
7.009618203436344
 20
27.49999960952529
 30
0.0
 40
2.1
  0
CIRCLE
  5
98
330
164
100
AcDbEntity
  8
0
100
AcDbCircle
 10
7.009618203436344
 20
12.49999960952527
 30
0.0
 40
2.1
  0
ARC
  5
19C
330
164
100
AcDbEntity
  8
0
100
AcDbCircle
 10
7.009618203436344
 20
27.49999960952529
 30
0.0
 40
5.0
100
AcDbArc
 50
90.0
 51
149.9999999999999
  0
ARC
  5
19F
330
164
100
AcDbEntity
  8
0
100
AcDbCircle
 10
7.009618203436344
 20
12.49999960952527
 30
0.0
 40
5.000000000000013
100
AcDbArc
 50
210.0
 51
270.0
  0
LINE
  5
1A0
330
164
100
AcDbEntity
  8
0
100
AcDbLine
 10
7.009618203436344
 20
32.49999960952529
 30
0.0
 11
11.99999926020291
 21
32.49999960952529
 31
0.0
  0
LINE
  5
1A1
330
164
100
AcDbEntity
  8
0
100
AcDbLine
 10
7.009618203436343
 20
7.499999609525255
 30
0.0
 11
11.9999992602029
 21
7.499999609525255
 31
0.0
  0
ARC
  5
1B2
330
164
100
AcDbEntity
  8
0
100
AcDbCircle
 10
19.99999926020291
 20
19.99999960952527
 30
0.0
 40
20.0
100
AcDbArc
 50
149.9999999999999
 51
210.0
  0
ARC
  5
1B8
330
164
100
AcDbEntity
  8
0
100
AcDbCircle
 10
19.99999926020291
 20
19.99999960952527
 30
0.0
 40
22.50555486985381
100
AcDbArc
 50
253.799607531622
 51
267.3954068328626
  0
ARC
  5
1BA
330
164
100
AcDbEntity
  8
0
100
AcDbCircle
 10
19.99999926020291
 20
19.99999960952527
 30
0.0
 40
22.50555486985381
100
AcDbArc
 50
92.60459316713751
 51
106.2003924683778
  0
ARC
  5
22C
330
164
100
AcDbEntity
  8
0
100
AcDbCircle
 10
18.99999926020291
 20
41.98282120117148
 30
0.0
 40
0.5
100
AcDbArc
 50
0.0
 51
92.60459316713758
  0
ARC
  5
22F
330
164
100
AcDbEntity
  8
0
100
AcDbCircle
 10
18.9999992602029
 20
-1.982821982120941
 30
0.0
 40
0.5
100
AcDbArc
 50
267.3954068328615
 51
0.0
  0
LINE
  5
231
330
164
100
AcDbEntity
  8
0
100
AcDbLine
 10
12.99999926020291
 20
33.49999960952529
 30
0.0
 11
12.99999926020291
 21
40.65160705931698
 31
0.0
  0
LINE
  5
233
330
164
100
AcDbEntity
  8
0
100
AcDbLine
 10
12.9999992602029
 20
-0.6516078402664501
 30
0.0
 11
12.9999992602029
 21
6.499999609525255
 31
0.0
  0
ARC
  5
247
330
164
100
AcDbEntity
  8
0
100
AcDbCircle
 10
13.99999926020291
 20
40.65160705931698
 30
0.0
 40
1.0
100
AcDbArc
 50
106.2003924683781
 51
180.0
  0
ARC
  5
248
330
164
100
AcDbEntity
  8
0
100
AcDbCircle
 10
11.99999926020291
 20
33.49999960952529
 30
0.0
 40
1.0
100
AcDbArc
 50
270.0
 51
0.0
  0
ARC
  5
24D
330
164
100
AcDbEntity
  8
0
100
AcDbCircle
 10
13.99999926020289
 20
-0.6516078402664505
 30
0.0
 40
1.0
100
AcDbArc
 50
180.0
 51
253.7996075316218
  0
ARC
  5
24E
330
164
100
AcDbEntity
  8
0
100
AcDbCircle
 10
11.9999992602029
 20
6.499999609525255
 30
0.0
 40
1.0
100
AcDbArc
 50
0.0
 51
90.0
  0
ARC
  5
4AE
330
164
100
AcDbEntity
  8
0
100
AcDbCircle
 10
40.99999926020291
 20
19.99999960952527
 30
0.0
 40
20.0
100
AcDbArc
 50
149.9999999999999
 51
210.0
  0
CIRCLE
  5
4AF
330
164
100
AcDbEntity
  8
0
100
AcDbCircle
 10
28.00961820343635
 20
27.49999960952529
 30
0.0
 40
2.1
  0
CIRCLE
  5
4B0
330
164
100
AcDbEntity
  8
0
100
AcDbCircle
 10
28.00961820343635
 20
12.49999960952527
 30
0.0
 40
2.1
  0
ARC
  5
4BA
330
164
100
AcDbEntity
  8
0
100
AcDbCircle
 10
28.00961820343635
 20
27.49999960952529
 30
0.0
 40
5.0
100
AcDbArc
 50
90.0
 51
149.9999999999999
  0
ARC
  5
4BB
330
164
100
AcDbEntity
  8
0
100
AcDbCircle
 10
28.00961820343635
 20
12.49999960952527
 30
0.0
 40
5.000000000000013
100
AcDbArc
 50
210.0
 51
270.0
  0
LINE
  5
4BC
330
164
100
AcDbEntity
  8
0
100
AcDbLine
 10
28.00961820343635
 20
32.49999960952529
 30
0.0
 11
32.99999926020291
 21
32.49999960952529
 31
0.0
  0
ARC
  5
4BD
330
164
100
AcDbEntity
  8
0
100
AcDbCircle
 10
32.99999926020291
 20
33.49999960952529
 30
0.0
 40
1.0
100
AcDbArc
 50
270.0
 51
0.0
  0
LINE
  5
4BE
330
164
100
AcDbEntity
  8
0
100
AcDbLine
 10
28.00961820343635
 20
7.499999609525255
 30
0.0
 11
32.9999992602029
 21
7.499999609525255
 31
0.0
  0
ARC
  5
4BF
330
164
100
AcDbEntity
  8
0
100
AcDbCircle
 10
32.9999992602029
 20
6.499999609525255
 30
0.0
 40
1.0
100
AcDbArc
 50
0.0
 51
90.0
  0
LINE
  5
4C0
330
164
100
AcDbEntity
  8
0
100
AcDbLine
 10
33.99999926020291
 20
33.49999960952529
 30
0.0
 11
33.99999926020291
 21
40.65160705931698
 31
0.0
  0
LINE
  5
4C3
330
164
100
AcDbEntity
  8
0
100
AcDbLine
 10
33.9999992602029
 20
-0.6516078402664501
 30
0.0
 11
33.9999992602029
 21
6.499999609525255
 31
0.0
  0
ARC
  5
4C4
330
164
100
AcDbEntity
  8
0
100
AcDbCircle
 10
40.99999926020291
 20
19.99999960952527
 30
0.0
 40
22.50555486985381
100
AcDbArc
 50
253.799607531622
 51
267.3954068328624
  0
ARC
  5
4C5
330
164
100
AcDbEntity
  8
0
100
AcDbCircle
 10
34.9999992602029
 20
-0.6516078402664505
 30
0.0
 40
1.0
100
AcDbArc
 50
180.0
 51
253.7996075316217
  0
ARC
  5
4C6
330
164
100
AcDbEntity
  8
0
100
AcDbCircle
 10
39.9999992602029
 20
-1.982821982120941
 30
0.0
 40
0.5
100
AcDbArc
 50
267.3954068328615
 51
0.0
  0
ARC
  5
4C7
330
164
100
AcDbEntity
  8
0
100
AcDbCircle
 10
40.99999926020291
 20
19.99999960952527
 30
0.0
 40
22.50555486985381
100
AcDbArc
 50
92.60459316713744
 51
106.2003924683778
  0
ARC
  5
4C8
330
164
100
AcDbEntity
  8
0
100
AcDbCircle
 10
34.9999992602029
 20
40.65160705931698
 30
0.0
 40
1.0
100
AcDbArc
 50
106.2003924683781
 51
180.0
  0
ARC
  5
4C9
330
164
100
AcDbEntity
  8
0
100
AcDbCircle
 10
39.9999992602029
 20
41.98282120117148
 30
0.0
 40
0.5
100
AcDbArc
 50
0.0
 51
92.60459316713763
  0
ARC
  5
4CA
330
164
100
AcDbEntity
  8
0
100
AcDbCircle
 10
61.9999992602029
 20
19.99999960952527
 30
0.0
 40
20.0
100
AcDbArc
 50
150.0
 51
210.0
  0
CIRCLE
  5
4CB
330
164
100
AcDbEntity
  8
0
100
AcDbCircle
 10
49.00961820343635
 20
27.49999960952529
 30
0.0
 40
2.1
  0
CIRCLE
  5
4CC
330
164
100
AcDbEntity
  8
0
100
AcDbCircle
 10
49.00961820343635
 20
12.49999960952527
 30
0.0
 40
2.1
  0
ARC
  5
4D6
330
164
100
AcDbEntity
  8
0
100
AcDbCircle
 10
49.00961820343635
 20
27.49999960952529
 30
0.0
 40
5.0
100
AcDbArc
 50
90.0
 51
150.0
  0
ARC
  5
4D7
330
164
100
AcDbEntity
  8
0
100
AcDbCircle
 10
49.00961820343635
 20
12.49999960952527
 30
0.0
 40
5.000000000000013
100
AcDbArc
 50
210.0
 51
270.0
  0
LINE
  5
4D8
330
164
100
AcDbEntity
  8
0
100
AcDbLine
 10
49.00961820343635
 20
32.49999960952529
 30
0.0
 11
53.9999992602029
 21
32.49999960952529
 31
0.0
  0
ARC
  5
4D9
330
164
100
AcDbEntity
  8
0
100
AcDbCircle
 10
53.9999992602029
 20
33.49999960952529
 30
0.0
 40
1.0
100
AcDbArc
 50
270.0
 51
0.0
  0
LINE
  5
4DA
330
164
100
AcDbEntity
  8
0
100
AcDbLine
 10
49.00961820343635
 20
7.499999609525255
 30
0.0
 11
53.99999926020289
 21
7.499999609525255
 31
0.0
  0
ARC
  5
4DB
330
164
100
AcDbEntity
  8
0
100
AcDbCircle
 10
53.99999926020289
 20
6.499999609525255
 30
0.0
 40
1.0
100
AcDbArc
 50
0.0
 51
90.0
  0
LINE
  5
4DC
330
164
100
AcDbEntity
  8
0
100
AcDbLine
 10
54.9999992602029
 20
33.49999960952529
 30
0.0
 11
54.9999992602029
 21
40.65160705931698
 31
0.0
  0
LINE
  5
4DF
330
164
100
AcDbEntity
  8
0
100
AcDbLine
 10
54.99999926020289
 20
-0.6516078402664501
 30
0.0
 11
54.99999926020289
 21
6.499999609525255
 31
0.0
  0
ARC
  5
4E0
330
164
100
AcDbEntity
  8
0
100
AcDbCircle
 10
61.9999992602029
 20
19.99999960952527
 30
0.0
 40
22.50555486985381
100
AcDbArc
 50
253.799607531622
 51
267.3954068328624
  0
ARC
  5
4E1
330
164
100
AcDbEntity
  8
0
100
AcDbCircle
 10
55.99999926020289
 20
-0.6516078402664505
 30
0.0
 40
1.0
100
AcDbArc
 50
180.0
 51
253.7996075316217
  0
ARC
  5
4E2
330
164
100
AcDbEntity
  8
0
100
AcDbCircle
 10
60.99999926020289
 20
-1.982821982120941
 30
0.0
 40
0.5
100
AcDbArc
 50
267.3954068328615
 51
0.0
  0
ARC
  5
4E3
330
164
100
AcDbEntity
  8
0
100
AcDbCircle
 10
61.9999992602029
 20
19.99999960952527
 30
0.0
 40
22.50555486985381
100
AcDbArc
 50
92.60459316713763
 51
106.2003924683778
  0
ARC
  5
4E4
330
164
100
AcDbEntity
  8
0
100
AcDbCircle
 10
55.99999926020291
 20
40.65160705931698
 30
0.0
 40
1.0
100
AcDbArc
 50
106.2003924683783
 51
180.0
  0
ARC
  5
4E5
330
164
100
AcDbEntity
  8
0
100
AcDbCircle
 10
60.99999926020291
 20
41.98282120117148
 30
0.0
 40
0.5
100
AcDbArc
 50
0.0
 51
92.60459316713763
  0
ARC
  5
4E6
330
164
100
AcDbEntity
  8
0
100
AcDbCircle
 10
82.99999926020289
 20
19.99999960952527
 30
0.0
 40
20.0
100
AcDbArc
 50
150.0
 51
210.0
  0
CIRCLE
  5
4E7
330
164
100
AcDbEntity
  8
0
100
AcDbCircle
 10
70.00961820343636
 20
27.49999960952529
 30
0.0
 40
2.1
  0
CIRCLE
  5
4E8
330
164
100
AcDbEntity
  8
0
100
AcDbCircle
 10
70.00961820343636
 20
12.49999960952527
 30
0.0
 40
2.1
  0
ARC
  5
4F2
330
164
100
AcDbEntity
  8
0
100
AcDbCircle
 10
70.00961820343636
 20
27.49999960952529
 30
0.0
 40
5.0
100
AcDbArc
 50
90.0
 51
150.0
  0
ARC
  5
4F3
330
164
100
AcDbEntity
  8
0
100
AcDbCircle
 10
70.00961820343636
 20
12.49999960952527
 30
0.0
 40
5.000000000000013
100
AcDbArc
 50
210.0
 51
270.0
  0
LINE
  5
4F4
330
164
100
AcDbEntity
  8
0
100
AcDbLine
 10
70.00961820343636
 20
32.49999960952529
 30
0.0
 11
74.9999992602029
 21
32.49999960952529
 31
0.0
  0
ARC
  5
4F5
330
164
100
AcDbEntity
  8
0
100
AcDbCircle
 10
74.9999992602029
 20
33.49999960952529
 30
0.0
 40
1.0
100
AcDbArc
 50
270.0
 51
0.0
  0
LINE
  5
4F6
330
164
100
AcDbEntity
  8
0
100
AcDbLine
 10
70.00961820343636
 20
7.499999609525255
 30
0.0
 11
74.9999992602029
 21
7.499999609525255
 31
0.0
  0
ARC
  5
4F7
330
164
100
AcDbEntity
  8
0
100
AcDbCircle
 10
74.9999992602029
 20
6.499999609525255
 30
0.0
 40
1.0
100
AcDbArc
 50
0.0
 51
90.0
  0
LINE
  5
4F8
330
164
100
AcDbEntity
  8
0
100
AcDbLine
 10
75.9999992602029
 20
33.49999960952529
 30
0.0
 11
75.9999992602029
 21
40.65160705931698
 31
0.0
  0
LINE
  5
4FB
330
164
100
AcDbEntity
  8
0
100
AcDbLine
 10
75.9999992602029
 20
-0.6516078402664501
 30
0.0
 11
75.9999992602029
 21
6.499999609525255
 31
0.0
  0
ARC
  5
4FC
330
164
100
AcDbEntity
  8
0
100
AcDbCircle
 10
82.99999926020289
 20
19.99999960952527
 30
0.0
 40
22.50555486985381
100
AcDbArc
 50
253.799607531622
 51
267.3954068328624
  0
ARC
  5
4FD
330
164
100
AcDbEntity
  8
0
100
AcDbCircle
 10
76.99999926020289
 20
-0.6516078402664505
 30
0.0
 40
1.0
100
AcDbArc
 50
180.0
 51
253.7996075316217
  0
ARC
  5
4FE
330
164
100
AcDbEntity
  8
0
100
AcDbCircle
 10
81.99999926020289
 20
-1.982821982120941
 30
0.0
 40
0.5
100
AcDbArc
 50
267.3954068328615
 51
0.0
  0
ARC
  5
4FF
330
164
100
AcDbEntity
  8
0
100
AcDbCircle
 10
82.99999926020289
 20
19.99999960952527
 30
0.0
 40
22.50555486985381
100
AcDbArc
 50
92.60459316713763
 51
106.2003924683778
  0
ARC
  5
500
330
164
100
AcDbEntity
  8
0
100
AcDbCircle
 10
76.99999926020289
 20
40.65160705931698
 30
0.0
 40
1.0
100
AcDbArc
 50
106.2003924683783
 51
180.0
  0
ARC
  5
501
330
164
100
AcDbEntity
  8
0
100
AcDbCircle
 10
81.99999926020289
 20
41.98282120117148
 30
0.0
 40
0.5
100
AcDbArc
 50
0.0
 51
92.60459316713763
  0
ARC
  5
502
330
164
100
AcDbEntity
  8
0
100
AcDbCircle
 10
103.9999992602029
 20
19.99999960952527
 30
0.0
 40
20.0
100
AcDbArc
 50
149.9999999999998
 51
210.0000000000001
  0
CIRCLE
  5
503
330
164
100
AcDbEntity
  8
0
100
AcDbCircle
 10
91.00961820343632
 20
27.49999960952529
 30
0.0
 40
2.1
  0
CIRCLE
  5
504
330
164
100
AcDbEntity
  8
0
100
AcDbCircle
 10
91.00961820343632
 20
12.49999960952527
 30
0.0
 40
2.1
  0
ARC
  5
50E
330
164
100
AcDbEntity
  8
0
100
AcDbCircle
 10
91.00961820343632
 20
27.49999960952529
 30
0.0
 40
5.0
100
AcDbArc
 50
90.0
 51
149.9999999999998
  0
ARC
  5
50F
330
164
100
AcDbEntity
  8
0
100
AcDbCircle
 10
91.00961820343632
 20
12.49999960952527
 30
0.0
 40
5.000000000000013
100
AcDbArc
 50
210.0000000000001
 51
270.0
  0
LINE
  5
510
330
164
100
AcDbEntity
  8
0
100
AcDbLine
 10
91.00961820343632
 20
32.49999960952529
 30
0.0
 11
95.99999926020293
 21
32.49999960952529
 31
0.0
  0
ARC
  5
511
330
164
100
AcDbEntity
  8
0
100
AcDbCircle
 10
95.99999926020293
 20
33.49999960952529
 30
0.0
 40
1.0
100
AcDbArc
 50
270.0
 51
0.0
  0
LINE
  5
512
330
164
100
AcDbEntity
  8
0
100
AcDbLine
 10
91.00961820343632
 20
7.499999609525255
 30
0.0
 11
95.9999992602029
 21
7.499999609525255
 31
0.0
  0
ARC
  5
513
330
164
100
AcDbEntity
  8
0
100
AcDbCircle
 10
95.9999992602029
 20
6.499999609525255
 30
0.0
 40
1.0
100
AcDbArc
 50
0.0
 51
90.0
  0
LINE
  5
514
330
164
100
AcDbEntity
  8
0
100
AcDbLine
 10
96.99999926020293
 20
33.49999960952529
 30
0.0
 11
96.99999926020293
 21
40.65160705931698
 31
0.0
  0
LINE
  5
517
330
164
100
AcDbEntity
  8
0
100
AcDbLine
 10
96.99999926020288
 20
-0.6516078402664501
 30
0.0
 11
96.99999926020288
 21
6.499999609525255
 31
0.0
  0
ARC
  5
518
330
164
100
AcDbEntity
  8
0
100
AcDbCircle
 10
103.9999992602029
 20
19.99999960952527
 30
0.0
 40
22.50555486985381
100
AcDbArc
 50
253.799607531622
 51
267.3954068328624
  0
ARC
  5
519
330
164
100
AcDbEntity
  8
0
100
AcDbCircle
 10
97.99999926020293
 20
-0.6516078402664505
 30
0.0
 40
1.0
100
AcDbArc
 50
180.0
 51
253.799607531622
  0
ARC
  5
51A
330
164
100
AcDbEntity
  8
0
100
AcDbCircle
 10
102.9999992602029
 20
-1.982821982120941
 30
0.0
 40
0.5
100
AcDbArc
 50
267.3954068328615
 51
0.0
  0
ARC
  5
51B
330
164
100
AcDbEntity
  8
0
100
AcDbCircle
 10
103.9999992602029
 20
19.99999960952527
 30
0.0
 40
22.50555486985381
100
AcDbArc
 50
92.60459316713763
 51
106.2003924683778
  0
ARC
  5
51C
330
164
100
AcDbEntity
  8
0
100
AcDbCircle
 10
97.99999926020293
 20
40.65160705931698
 30
0.0
 40
1.0
100
AcDbArc
 50
106.2003924683779
 51
180.0
  0
ARC
  5
51D
330
164
100
AcDbEntity
  8
0
100
AcDbCircle
 10
102.9999992602029
 20
41.98282120117148
 30
0.0
 40
0.5
100
AcDbArc
 50
0.0
 51
92.60459316713763
  0
ARC
  5
51E
330
164
100
AcDbEntity
  8
0
100
AcDbCircle
 10
124.9999992602029
 20
19.99999960952527
 30
0.0
 40
20.0
100
AcDbArc
 50
149.9999999999998
 51
210.0000000000001
  0
CIRCLE
  5
51F
330
164
100
AcDbEntity
  8
0
100
AcDbCircle
 10
112.0096182034363
 20
27.49999960952529
 30
0.0
 40
2.1
  0
CIRCLE
  5
520
330
164
100
AcDbEntity
  8
0
100
AcDbCircle
 10
112.0096182034363
 20
12.49999960952527
 30
0.0
 40
2.1
  0
ARC
  5
52A
330
164
100
AcDbEntity
  8
0
100
AcDbCircle
 10
112.0096182034363
 20
27.49999960952529
 30
0.0
 40
5.0
100
AcDbArc
 50
90.0
 51
149.9999999999998
  0
ARC
  5
52B
330
164
100
AcDbEntity
  8
0
100
AcDbCircle
 10
112.0096182034363
 20
12.49999960952527
 30
0.0
 40
5.000000000000013
100
AcDbArc
 50
210.0000000000001
 51
270.0
  0
LINE
  5
52C
330
164
100
AcDbEntity
  8
0
100
AcDbLine
 10
112.0096182034363
 20
32.49999960952529
 30
0.0
 11
116.9999992602029
 21
32.49999960952529
 31
0.0
  0
ARC
  5
52D
330
164
100
AcDbEntity
  8
0
100
AcDbCircle
 10
116.9999992602029
 20
33.49999960952529
 30
0.0
 40
1.0
100
AcDbArc
 50
270.0
 51
0.0
  0
LINE
  5
52E
330
164
100
AcDbEntity
  8
0
100
AcDbLine
 10
112.0096182034363
 20
7.499999609525255
 30
0.0
 11
116.9999992602029
 21
7.499999609525255
 31
0.0
  0
ARC
  5
52F
330
164
100
AcDbEntity
  8
0
100
AcDbCircle
 10
116.9999992602029
 20
6.499999609525255
 30
0.0
 40
1.0
100
AcDbArc
 50
0.0
 51
90.0
  0
LINE
  5
530
330
164
100
AcDbEntity
  8
0
100
AcDbLine
 10
117.9999992602029
 20
33.49999960952529
 30
0.0
 11
117.9999992602029
 21
40.65160705931698
 31
0.0
  0
LINE
  5
533
330
164
100
AcDbEntity
  8
0
100
AcDbLine
 10
117.9999992602029
 20
-0.6516078402664501
 30
0.0
 11
117.9999992602029
 21
6.499999609525255
 31
0.0
  0
ARC
  5
534
330
164
100
AcDbEntity
  8
0
100
AcDbCircle
 10
124.9999992602029
 20
19.99999960952527
 30
0.0
 40
22.50555486985381
100
AcDbArc
 50
253.799607531622
 51
267.3954068328624
  0
ARC
  5
535
330
164
100
AcDbEntity
  8
0
100
AcDbCircle
 10
118.9999992602029
 20
-0.6516078402664505
 30
0.0
 40
1.0
100
AcDbArc
 50
180.0
 51
253.799607531622
  0
ARC
  5
536
330
164
100
AcDbEntity
  8
0
100
AcDbCircle
 10
123.9999992602029
 20
-1.982821982120941
 30
0.0
 40
0.5
100
AcDbArc
 50
267.3954068328615
 51
0.0
  0
ARC
  5
537
330
164
100
AcDbEntity
  8
0
100
AcDbCircle
 10
124.9999992602029
 20
19.99999960952527
 30
0.0
 40
22.50555486985381
100
AcDbArc
 50
92.60459316713763
 51
106.2003924683778
  0
ARC
  5
538
330
164
100
AcDbEntity
  8
0
100
AcDbCircle
 10
118.9999992602029
 20
40.65160705931698
 30
0.0
 40
1.0
100
AcDbArc
 50
106.2003924683779
 51
180.0
  0
ARC
  5
539
330
164
100
AcDbEntity
  8
0
100
AcDbCircle
 10
123.9999992602029
 20
41.98282120117148
 30
0.0
 40
0.5
100
AcDbArc
 50
0.0
 51
92.60459316713763
  0
ARC
  5
53A
330
164
100
AcDbEntity
  8
0
100
AcDbCircle
 10
145.9999992602029
 20
19.99999960952527
 30
0.0
 40
20.0
100
AcDbArc
 50
149.9999999999999
 51
210.0
  0
CIRCLE
  5
53B
330
164
100
AcDbEntity
  8
0
100
AcDbCircle
 10
133.0096182034363
 20
27.49999960952529
 30
0.0
 40
2.1
  0
CIRCLE
  5
53C
330
164
100
AcDbEntity
  8
0
100
AcDbCircle
 10
133.0096182034363
 20
12.49999960952527
 30
0.0
 40
2.1
  0
ARC
  5
546
330
164
100
AcDbEntity
  8
0
100
AcDbCircle
 10
133.0096182034363
 20
27.49999960952529
 30
0.0
 40
5.0
100
AcDbArc
 50
90.0
 51
149.9999999999999
  0
ARC
  5
547
330
164
100
AcDbEntity
  8
0
100
AcDbCircle
 10
133.0096182034363
 20
12.49999960952527
 30
0.0
 40
5.000000000000013
100
AcDbArc
 50
210.0
 51
270.0
  0
LINE
  5
548
330
164
100
AcDbEntity
  8
0
100
AcDbLine
 10
133.0096182034363
 20
32.49999960952529
 30
0.0
 11
137.9999992602029
 21
32.49999960952529
 31
0.0
  0
ARC
  5
549
330
164
100
AcDbEntity
  8
0
100
AcDbCircle
 10
137.9999992602029
 20
33.49999960952529
 30
0.0
 40
1.0
100
AcDbArc
 50
270.0
 51
0.0
  0
LINE
  5
54A
330
164
100
AcDbEntity
  8
0
100
AcDbLine
 10
133.0096182034363
 20
7.499999609525255
 30
0.0
 11
137.9999992602029
 21
7.499999609525255
 31
0.0
  0
ARC
  5
54B
330
164
100
AcDbEntity
  8
0
100
AcDbCircle
 10
137.9999992602029
 20
6.499999609525255
 30
0.0
 40
1.0
100
AcDbArc
 50
0.0
 51
90.0
  0
LINE
  5
54C
330
164
100
AcDbEntity
  8
0
100
AcDbLine
 10
138.9999992602029
 20
33.49999960952529
 30
0.0
 11
138.9999992602029
 21
40.65160705931698
 31
0.0
  0
LINE
  5
54F
330
164
100
AcDbEntity
  8
0
100
AcDbLine
 10
138.9999992602029
 20
-0.6516078402664501
 30
0.0
 11
138.9999992602029
 21
6.499999609525255
 31
0.0
  0
ARC
  5
550
330
164
100
AcDbEntity
  8
0
100
AcDbCircle
 10
145.9999992602029
 20
19.99999960952527
 30
0.0
 40
22.50555486985381
100
AcDbArc
 50
253.799607531622
 51
267.3954068328624
  0
ARC
  5
551
330
164
100
AcDbEntity
  8
0
100
AcDbCircle
 10
139.9999992602029
 20
-0.6516078402664505
 30
0.0
 40
1.0
100
AcDbArc
 50
180.0
 51
253.799607531622
  0
ARC
  5
552
330
164
100
AcDbEntity
  8
0
100
AcDbCircle
 10
144.9999992602029
 20
-1.982821982120941
 30
0.0
 40
0.5
100
AcDbArc
 50
267.3954068328615
 51
0.0
  0
ARC
  5
553
330
164
100
AcDbEntity
  8
0
100
AcDbCircle
 10
145.9999992602029
 20
19.99999960952527
 30
0.0
 40
22.50555486985381
100
AcDbArc
 50
92.60459316713763
 51
106.2003924683778
  0
ARC
  5
554
330
164
100
AcDbEntity
  8
0
100
AcDbCircle
 10
139.9999992602029
 20
40.65160705931698
 30
0.0
 40
1.0
100
AcDbArc
 50
106.2003924683779
 51
180.0
  0
ARC
  5
555
330
164
100
AcDbEntity
  8
0
100
AcDbCircle
 10
144.9999992602029
 20
41.98282120117148
 30
0.0
 40
0.5
100
AcDbArc
 50
0.0
 51
92.60459316713763
  0
ARC
  5
556
330
164
100
AcDbEntity
  8
0
100
AcDbCircle
 10
166.9999992602029
 20
19.99999960952527
 30
0.0
 40
20.0
100
AcDbArc
 50
149.9999999999999
 51
210.0
  0
CIRCLE
  5
557
330
164
100
AcDbEntity
  8
0
100
AcDbCircle
 10
154.0096182034363
 20
27.49999960952529
 30
0.0
 40
2.1
  0
CIRCLE
  5
558
330
164
100
AcDbEntity
  8
0
100
AcDbCircle
 10
154.0096182034363
 20
12.49999960952527
 30
0.0
 40
2.1
  0
ARC
  5
562
330
164
100
AcDbEntity
  8
0
100
AcDbCircle
 10
154.0096182034363
 20
27.49999960952529
 30
0.0
 40
5.0
100
AcDbArc
 50
90.0
 51
149.9999999999999
  0
ARC
  5
563
330
164
100
AcDbEntity
  8
0
100
AcDbCircle
 10
154.0096182034363
 20
12.49999960952527
 30
0.0
 40
5.000000000000013
100
AcDbArc
 50
210.0
 51
270.0
  0
LINE
  5
564
330
164
100
AcDbEntity
  8
0
100
AcDbLine
 10
154.0096182034363
 20
32.49999960952529
 30
0.0
 11
158.9999992602029
 21
32.49999960952529
 31
0.0
  0
ARC
  5
565
330
164
100
AcDbEntity
  8
0
100
AcDbCircle
 10
158.9999992602029
 20
33.49999960952529
 30
0.0
 40
1.0
100
AcDbArc
 50
270.0
 51
0.0
  0
LINE
  5
566
330
164
100
AcDbEntity
  8
0
100
AcDbLine
 10
154.0096182034363
 20
7.499999609525255
 30
0.0
 11
158.9999992602029
 21
7.499999609525255
 31
0.0
  0
ARC
  5
567
330
164
100
AcDbEntity
  8
0
100
AcDbCircle
 10
158.9999992602029
 20
6.499999609525255
 30
0.0
 40
1.0
100
AcDbArc
 50
0.0
 51
90.0
  0
LINE
  5
568
330
164
100
AcDbEntity
  8
0
100
AcDbLine
 10
159.9999992602029
 20
33.49999960952529
 30
0.0
 11
159.9999992602029
 21
40.65160705931698
 31
0.0
  0
LINE
  5
56B
330
164
100
AcDbEntity
  8
0
100
AcDbLine
 10
159.9999992602029
 20
-0.6516078402664501
 30
0.0
 11
159.9999992602029
 21
6.499999609525255
 31
0.0
  0
ARC
  5
56C
330
164
100
AcDbEntity
  8
0
100
AcDbCircle
 10
166.9999992602029
 20
19.99999960952527
 30
0.0
 40
22.50555486985381
100
AcDbArc
 50
253.799607531622
 51
267.3954068328624
  0
ARC
  5
56D
330
164
100
AcDbEntity
  8
0
100
AcDbCircle
 10
160.9999992602029
 20
-0.6516078402664505
 30
0.0
 40
1.0
100
AcDbArc
 50
180.0
 51
253.799607531622
  0
ARC
  5
56E
330
164
100
AcDbEntity
  8
0
100
AcDbCircle
 10
165.9999992602029
 20
-1.982821982120941
 30
0.0
 40
0.5
100
AcDbArc
 50
267.3954068328615
 51
0.0
  0
ARC
  5
56F
330
164
100
AcDbEntity
  8
0
100
AcDbCircle
 10
166.9999992602029
 20
19.99999960952527
 30
0.0
 40
22.50555486985381
100
AcDbArc
 50
92.60459316713763
 51
106.2003924683778
  0
ARC
  5
570
330
164
100
AcDbEntity
  8
0
100
AcDbCircle
 10
160.9999992602029
 20
40.65160705931698
 30
0.0
 40
1.0
100
AcDbArc
 50
106.2003924683779
 51
180.0
  0
ARC
  5
571
330
164
100
AcDbEntity
  8
0
100
AcDbCircle
 10
165.9999992602029
 20
41.98282120117148
 30
0.0
 40
0.5
100
AcDbArc
 50
0.0
 51
92.60459316713763
  0
ARC
  5
572
330
164
100
AcDbEntity
  8
0
100
AcDbCircle
 10
148.2584611539681
 20
57.00921106282961
 30
0.0
 40
20.0
100
AcDbArc
 50
329.9999999999997
 51
30.00000000000031
  0
CIRCLE
  5
573
330
164
100
AcDbEntity
  8
0
100
AcDbCircle
 10
161.2488422107346
 20
49.50921106282956
 30
0.0
 40
2.1
  0
CIRCLE
  5
574
330
164
100
AcDbEntity
  8
0
100
AcDbCircle
 10
161.2488422107346
 20
64.50921106282958
 30
0.0
 40
2.1
  0
ARC
  5
57E
330
164
100
AcDbEntity
  8
0
100
AcDbCircle
 10
161.2488422107346
 20
49.50921106282956
 30
0.0
 40
5.0
100
AcDbArc
 50
270.0
 51
329.9999999999997
  0
ARC
  5
57F
330
164
100
AcDbEntity
  8
0
100
AcDbCircle
 10
161.2488422107346
 20
64.50921106282958
 30
0.0
 40
5.000000000000013
100
AcDbArc
 50
30.00000000000031
 51
90.0
  0
LINE
  5
580
330
164
100
AcDbEntity
  8
0
100
AcDbLine
 10
161.2488422107346
 20
44.50921106282956
 30
0.0
 11
156.2584611539681
 21
44.50921106282956
 31
0.0
  0
ARC
  5
581
330
164
100
AcDbEntity
  8
0
100
AcDbCircle
 10
156.2584611539681
 20
43.50921106282956
 30
0.0
 40
1.0
100
AcDbArc
 50
90.0
 51
180.0
  0
LINE
  5
582
330
164
100
AcDbEntity
  8
0
100
AcDbLine
 10
161.2488422107346
 20
69.50921106282959
 30
0.0
 11
156.2584611539681
 21
69.50921106282959
 31
0.0
  0
ARC
  5
583
330
164
100
AcDbEntity
  8
0
100
AcDbCircle
 10
156.2584611539681
 20
70.50921106282959
 30
0.0
 40
1.0
100
AcDbArc
 50
180.0
 51
270.0
  0
LINE
  5
584
330
164
100
AcDbEntity
  8
0
100
AcDbLine
 10
155.2584611539681
 20
43.50921106282956
 30
0.0
 11
155.2584611539681
 21
36.35760361303787
 31
0.0
  0
LINE
  5
587
330
164
100
AcDbEntity
  8
0
100
AcDbLine
 10
155.2584611539681
 20
77.6608185126213
 30
0.0
 11
155.2584611539681
 21
70.50921106282959
 31
0.0
  0
ARC
  5
588
330
164
100
AcDbEntity
  8
0
100
AcDbCircle
 10
148.2584611539681
 20
57.00921106282961
 30
0.0
 40
22.50555486985381
100
AcDbArc
 50
73.79960753162214
 51
87.39540683286236
  0
ARC
  5
589
330
164
100
AcDbEntity
  8
0
100
AcDbCircle
 10
154.2584611539681
 20
77.6608185126213
 30
0.0
 40
1.0
100
AcDbArc
 50
0.0
 51
73.79960753162214
  0
ARC
  5
58A
330
164
100
AcDbEntity
  8
0
100
AcDbCircle
 10
149.2584611539681
 20
78.99203265447581
 30
0.0
 40
0.5
100
AcDbArc
 50
87.39540683286156
 51
180.0
  0
ARC
  5
58B
330
164
100
AcDbEntity
  8
0
100
AcDbCircle
 10
148.2584611539681
 20
57.00921106282961
 30
0.0
 40
22.50555486985381
100
AcDbArc
 50
272.6045931671376
 51
286.2003924683778
  0
ARC
  5
58C
330
164
100
AcDbEntity
  8
0
100
AcDbCircle
 10
154.258461153968
 20
36.35760361303787
 30
0.0
 40
1.0
100
AcDbArc
 50
286.2003924683778
 51
0.0
  0
ARC
  5
58D
330
164
100
AcDbEntity
  8
0
100
AcDbCircle
 10
149.2584611539681
 20
35.02638947118339
 30
0.0
 40
0.5
100
AcDbArc
 50
180.0
 51
272.6045931671376
  0
ARC
  5
58E
330
164
100
AcDbEntity
  8
0
100
AcDbCircle
 10
127.2584611539681
 20
57.00921106282961
 30
0.0
 40
20.0
100
AcDbArc
 50
329.9999999999997
 51
30.00000000000031
  0
CIRCLE
  5
58F
330
164
100
AcDbEntity
  8
0
100
AcDbCircle
 10
140.2488422107346
 20
49.50921106282958
 30
0.0
 40
2.1
  0
CIRCLE
  5
590
330
164
100
AcDbEntity
  8
0
100
AcDbCircle
 10
140.2488422107346
 20
64.50921106282959
 30
0.0
 40
2.1
  0
ARC
  5
59A
330
164
100
AcDbEntity
  8
0
100
AcDbCircle
 10
140.2488422107346
 20
49.50921106282958
 30
0.0
 40
5.0
100
AcDbArc
 50
270.0
 51
329.9999999999997
  0
ARC
  5
59B
330
164
100
AcDbEntity
  8
0
100
AcDbCircle
 10
140.2488422107346
 20
64.50921106282959
 30
0.0
 40
5.000000000000013
100
AcDbArc
 50
30.00000000000031
 51
90.0
  0
LINE
  5
59C
330
164
100
AcDbEntity
  8
0
100
AcDbLine
 10
140.2488422107346
 20
44.50921106282957
 30
0.0
 11
135.2584611539681
 21
44.50921106282957
 31
0.0
  0
ARC
  5
59D
330
164
100
AcDbEntity
  8
0
100
AcDbCircle
 10
135.2584611539681
 20
43.50921106282958
 30
0.0
 40
1.0
100
AcDbArc
 50
90.0
 51
180.0
  0
LINE
  5
59E
330
164
100
AcDbEntity
  8
0
100
AcDbLine
 10
140.2488422107346
 20
69.50921106282961
 30
0.0
 11
135.2584611539681
 21
69.50921106282961
 31
0.0
  0
ARC
  5
59F
330
164
100
AcDbEntity
  8
0
100
AcDbCircle
 10
135.2584611539681
 20
70.50921106282959
 30
0.0
 40
1.0
100
AcDbArc
 50
180.0
 51
270.0
  0
LINE
  5
5A0
330
164
100
AcDbEntity
  8
0
100
AcDbLine
 10
134.2584611539681
 20
43.50921106282958
 30
0.0
 11
134.2584611539681
 21
36.35760361303788
 31
0.0
  0
LINE
  5
5A3
330
164
100
AcDbEntity
  8
0
100
AcDbLine
 10
134.2584611539681
 20
77.66081851262132
 30
0.0
 11
134.2584611539681
 21
70.50921106282959
 31
0.0
  0
ARC
  5
5A4
330
164
100
AcDbEntity
  8
0
100
AcDbCircle
 10
127.2584611539681
 20
57.00921106282961
 30
0.0
 40
22.50555486985381
100
AcDbArc
 50
73.79960753162214
 51
87.39540683286236
  0
ARC
  5
5A5
330
164
100
AcDbEntity
  8
0
100
AcDbCircle
 10
133.2584611539681
 20
77.66081851262132
 30
0.0
 40
1.0
100
AcDbArc
 50
0.0
 51
73.79960753162214
  0
ARC
  5
5A6
330
164
100
AcDbEntity
  8
0
100
AcDbCircle
 10
128.2584611539681
 20
78.99203265447581
 30
0.0
 40
0.5
100
AcDbArc
 50
87.39540683286156
 51
180.0
  0
ARC
  5
5A7
330
164
100
AcDbEntity
  8
0
100
AcDbCircle
 10
127.2584611539681
 20
57.00921106282961
 30
0.0
 40
22.50555486985381
100
AcDbArc
 50
272.6045931671376
 51
286.2003924683778
  0
ARC
  5
5A8
330
164
100
AcDbEntity
  8
0
100
AcDbCircle
 10
133.2584611539681
 20
36.35760361303788
 30
0.0
 40
1.0
100
AcDbArc
 50
286.2003924683778
 51
0.0
  0
ARC
  5
5A9
330
164
100
AcDbEntity
  8
0
100
AcDbCircle
 10
128.2584611539681
 20
35.02638947118339
 30
0.0
 40
0.5
100
AcDbArc
 50
180.0
 51
272.6045931671376
  0
ARC
  5
5AA
330
164
100
AcDbEntity
  8
0
100
AcDbCircle
 10
106.258461153968
 20
57.00921106282961
 30
0.0
 40
20.0
100
AcDbArc
 50
329.9999999999997
 51
30.00000000000031
  0
CIRCLE
  5
5AB
330
164
100
AcDbEntity
  8
0
100
AcDbCircle
 10
119.2488422107346
 20
49.50921106282958
 30
0.0
 40
2.1
  0
CIRCLE
  5
5AC
330
164
100
AcDbEntity
  8
0
100
AcDbCircle
 10
119.2488422107346
 20
64.50921106282959
 30
0.0
 40
2.1
  0
ARC
  5
5B6
330
164
100
AcDbEntity
  8
0
100
AcDbCircle
 10
119.2488422107346
 20
49.50921106282958
 30
0.0
 40
5.0
100
AcDbArc
 50
270.0
 51
329.9999999999997
  0
ARC
  5
5B7
330
164
100
AcDbEntity
  8
0
100
AcDbCircle
 10
119.2488422107346
 20
64.50921106282959
 30
0.0
 40
5.000000000000013
100
AcDbArc
 50
30.00000000000031
 51
90.0
  0
LINE
  5
5B8
330
164
100
AcDbEntity
  8
0
100
AcDbLine
 10
119.2488422107346
 20
44.50921106282957
 30
0.0
 11
114.258461153968
 21
44.50921106282957
 31
0.0
  0
ARC
  5
5B9
330
164
100
AcDbEntity
  8
0
100
AcDbCircle
 10
114.258461153968
 20
43.50921106282958
 30
0.0
 40
1.0
100
AcDbArc
 50
90.0
 51
180.0
  0
LINE
  5
5BA
330
164
100
AcDbEntity
  8
0
100
AcDbLine
 10
119.2488422107346
 20
69.50921106282961
 30
0.0
 11
114.258461153968
 21
69.50921106282961
 31
0.0
  0
ARC
  5
5BB
330
164
100
AcDbEntity
  8
0
100
AcDbCircle
 10
114.258461153968
 20
70.50921106282959
 30
0.0
 40
1.0
100
AcDbArc
 50
180.0
 51
270.0
  0
LINE
  5
5BC
330
164
100
AcDbEntity
  8
0
100
AcDbLine
 10
113.258461153968
 20
43.50921106282958
 30
0.0
 11
113.258461153968
 21
36.35760361303788
 31
0.0
  0
LINE
  5
5BD
330
164
100
AcDbEntity
  8
0
100
AcDbLine
 10
106.758461153968
 20
35.02638947118339
 30
0.0
 11
106.758461153968
 21
44.50921106282957
 31
0.0
  0
LINE
  5
5BF
330
164
100
AcDbEntity
  8
0
100
AcDbLine
 10
113.258461153968
 20
77.66081851262132
 30
0.0
 11
113.258461153968
 21
70.50921106282959
 31
0.0
  0
ARC
  5
5C0
330
164
100
AcDbEntity
  8
0
100
AcDbCircle
 10
106.258461153968
 20
57.00921106282961
 30
0.0
 40
22.50555486985381
100
AcDbArc
 50
73.79960753162214
 51
87.39540683286236
  0
ARC
  5
5C1
330
164
100
AcDbEntity
  8
0
100
AcDbCircle
 10
112.258461153968
 20
77.66081851262132
 30
0.0
 40
1.0
100
AcDbArc
 50
0.0
 51
73.79960753162214
  0
ARC
  5
5C2
330
164
100
AcDbEntity
  8
0
100
AcDbCircle
 10
107.258461153968
 20
78.99203265447581
 30
0.0
 40
0.5
100
AcDbArc
 50
87.39540683286156
 51
180.0
  0
ARC
  5
5C3
330
164
100
AcDbEntity
  8
0
100
AcDbCircle
 10
106.258461153968
 20
57.00921106282961
 30
0.0
 40
22.50555486985381
100
AcDbArc
 50
272.6045931671376
 51
286.2003924683778
  0
ARC
  5
5C4
330
164
100
AcDbEntity
  8
0
100
AcDbCircle
 10
112.258461153968
 20
36.35760361303788
 30
0.0
 40
1.0
100
AcDbArc
 50
286.2003924683778
 51
0.0
  0
ARC
  5
5C5
330
164
100
AcDbEntity
  8
0
100
AcDbCircle
 10
107.258461153968
 20
35.02638947118339
 30
0.0
 40
0.5
100
AcDbArc
 50
180.0
 51
272.6045931671376
  0
ARC
  5
5C6
330
164
100
AcDbEntity
  8
0
100
AcDbCircle
 10
85.25846115396808
 20
57.00921106282961
 30
0.0
 40
20.0
100
AcDbArc
 50
329.9999999999997
 51
30.00000000000031
  0
CIRCLE
  5
5C7
330
164
100
AcDbEntity
  8
0
100
AcDbCircle
 10
98.24884221073464
 20
49.50921106282958
 30
0.0
 40
2.1
  0
CIRCLE
  5
5C8
330
164
100
AcDbEntity
  8
0
100
AcDbCircle
 10
98.24884221073464
 20
64.50921106282959
 30
0.0
 40
2.1
  0
ARC
  5
5D2
330
164
100
AcDbEntity
  8
0
100
AcDbCircle
 10
98.24884221073464
 20
49.50921106282958
 30
0.0
 40
5.0
100
AcDbArc
 50
270.0
 51
329.9999999999997
  0
ARC
  5
5D3
330
164
100
AcDbEntity
  8
0
100
AcDbCircle
 10
98.24884221073464
 20
64.50921106282959
 30
0.0
 40
5.000000000000013
100
AcDbArc
 50
30.00000000000031
 51
90.0
  0
LINE
  5
5D4
330
164
100
AcDbEntity
  8
0
100
AcDbLine
 10
98.24884221073464
 20
44.50921106282957
 30
0.0
 11
93.25846115396808
 21
44.50921106282957
 31
0.0
  0
ARC
  5
5D5
330
164
100
AcDbEntity
  8
0
100
AcDbCircle
 10
93.25846115396808
 20
43.50921106282958
 30
0.0
 40
1.0
100
AcDbArc
 50
90.0
 51
180.0
  0
LINE
  5
5D6
330
164
100
AcDbEntity
  8
0
100
AcDbLine
 10
98.24884221073464
 20
69.50921106282961
 30
0.0
 11
93.25846115396808
 21
69.50921106282961
 31
0.0
  0
ARC
  5
5D7
330
164
100
AcDbEntity
  8
0
100
AcDbCircle
 10
93.25846115396808
 20
70.50921106282959
 30
0.0
 40
1.0
100
AcDbArc
 50
180.0
 51
270.0
  0
LINE
  5
5D8
330
164
100
AcDbEntity
  8
0
100
AcDbLine
 10
92.25846115396809
 20
43.50921106282958
 30
0.0
 11
92.25846115396809
 21
36.35760361303788
 31
0.0
  0
LINE
  5
5DB
330
164
100
AcDbEntity
  8
0
100
AcDbLine
 10
92.25846115396809
 20
77.66081851262132
 30
0.0
 11
92.25846115396809
 21
70.50921106282959
 31
0.0
  0
ARC
  5
5DC
330
164
100
AcDbEntity
  8
0
100
AcDbCircle
 10
85.25846115396808
 20
57.00921106282961
 30
0.0
 40
22.50555486985381
100
AcDbArc
 50
73.79960753162214
 51
87.39540683286236
  0
ARC
  5
5DD
330
164
100
AcDbEntity
  8
0
100
AcDbCircle
 10
91.25846115396809
 20
77.66081851262132
 30
0.0
 40
1.0
100
AcDbArc
 50
0.0
 51
73.79960753162214
  0
ARC
  5
5DE
330
164
100
AcDbEntity
  8
0
100
AcDbCircle
 10
86.25846115396807
 20
78.99203265447581
 30
0.0
 40
0.5
100
AcDbArc
 50
87.39540683286156
 51
180.0
  0
ARC
  5
5DF
330
164
100
AcDbEntity
  8
0
100
AcDbCircle
 10
85.25846115396808
 20
57.00921106282961
 30
0.0
 40
22.50555486985381
100
AcDbArc
 50
272.6045931671376
 51
286.2003924683778
  0
ARC
  5
5E0
330
164
100
AcDbEntity
  8
0
100
AcDbCircle
 10
91.25846115396809
 20
36.35760361303788
 30
0.0
 40
1.0
100
AcDbArc
 50
286.2003924683778
 51
0.0
  0
ARC
  5
5E1
330
164
100
AcDbEntity
  8
0
100
AcDbCircle
 10
86.25846115396807
 20
35.02638947118339
 30
0.0
 40
0.5
100
AcDbArc
 50
180.0
 51
272.6045931671376
  0
ARC
  5
5E2
330
164
100
AcDbEntity
  8
0
100
AcDbCircle
 10
64.25846115396807
 20
57.00921106282961
 30
0.0
 40
20.0
100
AcDbArc
 50
329.9999999999997
 51
30.00000000000031
  0
CIRCLE
  5
5E3
330
164
100
AcDbEntity
  8
0
100
AcDbCircle
 10
77.24884221073462
 20
49.50921106282958
 30
0.0
 40
2.1
  0
CIRCLE
  5
5E4
330
164
100
AcDbEntity
  8
0
100
AcDbCircle
 10
77.24884221073462
 20
64.50921106282959
 30
0.0
 40
2.1
  0
ARC
  5
5EE
330
164
100
AcDbEntity
  8
0
100
AcDbCircle
 10
77.24884221073462
 20
49.50921106282958
 30
0.0
 40
5.0
100
AcDbArc
 50
270.0
 51
329.9999999999997
  0
ARC
  5
5EF
330
164
100
AcDbEntity
  8
0
100
AcDbCircle
 10
77.24884221073462
 20
64.50921106282959
 30
0.0
 40
5.000000000000013
100
AcDbArc
 50
30.00000000000031
 51
90.0
  0
LINE
  5
5F0
330
164
100
AcDbEntity
  8
0
100
AcDbLine
 10
77.24884221073462
 20
44.50921106282957
 30
0.0
 11
72.2584611539681
 21
44.50921106282957
 31
0.0
  0
ARC
  5
5F1
330
164
100
AcDbEntity
  8
0
100
AcDbCircle
 10
72.2584611539681
 20
43.50921106282958
 30
0.0
 40
1.0
100
AcDbArc
 50
90.0
 51
180.0
  0
LINE
  5
5F2
330
164
100
AcDbEntity
  8
0
100
AcDbLine
 10
77.24884221073462
 20
69.50921106282961
 30
0.0
 11
72.2584611539681
 21
69.50921106282961
 31
0.0
  0
ARC
  5
5F3
330
164
100
AcDbEntity
  8
0
100
AcDbCircle
 10
72.2584611539681
 20
70.50921106282959
 30
0.0
 40
1.0
100
AcDbArc
 50
180.0
 51
270.0
  0
LINE
  5
5F4
330
164
100
AcDbEntity
  8
0
100
AcDbLine
 10
71.25846115396807
 20
43.50921106282958
 30
0.0
 11
71.25846115396807
 21
36.35760361303788
 31
0.0
  0
LINE
  5
5F7
330
164
100
AcDbEntity
  8
0
100
AcDbLine
 10
71.25846115396807
 20
77.66081851262132
 30
0.0
 11
71.25846115396807
 21
70.50921106282959
 31
0.0
  0
ARC
  5
5F8
330
164
100
AcDbEntity
  8
0
100
AcDbCircle
 10
64.25846115396807
 20
57.00921106282961
 30
0.0
 40
22.50555486985381
100
AcDbArc
 50
73.79960753162214
 51
87.39540683286236
  0
ARC
  5
5F9
330
164
100
AcDbEntity
  8
0
100
AcDbCircle
 10
70.25846115396809
 20
77.66081851262132
 30
0.0
 40
1.0
100
AcDbArc
 50
0.0
 51
73.79960753162214
  0
ARC
  5
5FA
330
164
100
AcDbEntity
  8
0
100
AcDbCircle
 10
65.25846115396809
 20
78.99203265447581
 30
0.0
 40
0.5
100
AcDbArc
 50
87.39540683286156
 51
180.0
  0
ARC
  5
5FB
330
164
100
AcDbEntity
  8
0
100
AcDbCircle
 10
64.25846115396807
 20
57.00921106282961
 30
0.0
 40
22.50555486985381
100
AcDbArc
 50
272.6045931671376
 51
286.2003924683778
  0
ARC
  5
5FC
330
164
100
AcDbEntity
  8
0
100
AcDbCircle
 10
70.25846115396809
 20
36.35760361303788
 30
0.0
 40
1.0
100
AcDbArc
 50
286.2003924683778
 51
0.0
  0
ARC
  5
5FD
330
164
100
AcDbEntity
  8
0
100
AcDbCircle
 10
65.25846115396809
 20
35.02638947118339
 30
0.0
 40
0.5
100
AcDbArc
 50
180.0
 51
272.6045931671376
  0
ARC
  5
5FE
330
164
100
AcDbEntity
  8
0
100
AcDbCircle
 10
43.25846115396807
 20
57.00921106282961
 30
0.0
 40
20.0
100
AcDbArc
 50
329.9999999999997
 51
30.00000000000031
  0
CIRCLE
  5
5FF
330
164
100
AcDbEntity
  8
0
100
AcDbCircle
 10
56.24884221073465
 20
49.50921106282958
 30
0.0
 40
2.1
  0
CIRCLE
  5
600
330
164
100
AcDbEntity
  8
0
100
AcDbCircle
 10
56.24884221073465
 20
64.50921106282959
 30
0.0
 40
2.1
  0
ARC
  5
60A
330
164
100
AcDbEntity
  8
0
100
AcDbCircle
 10
56.24884221073465
 20
49.50921106282958
 30
0.0
 40
5.0
100
AcDbArc
 50
270.0
 51
329.9999999999997
  0
ARC
  5
60B
330
164
100
AcDbEntity
  8
0
100
AcDbCircle
 10
56.24884221073465
 20
64.50921106282959
 30
0.0
 40
5.000000000000013
100
AcDbArc
 50
30.00000000000031
 51
90.0
  0
LINE
  5
60C
330
164
100
AcDbEntity
  8
0
100
AcDbLine
 10
56.24884221073465
 20
44.50921106282957
 30
0.0
 11
51.25846115396807
 21
44.50921106282957
 31
0.0
  0
ARC
  5
60D
330
164
100
AcDbEntity
  8
0
100
AcDbCircle
 10
51.25846115396807
 20
43.50921106282958
 30
0.0
 40
1.0
100
AcDbArc
 50
90.0
 51
180.0
  0
LINE
  5
60E
330
164
100
AcDbEntity
  8
0
100
AcDbLine
 10
56.24884221073465
 20
69.50921106282961
 30
0.0
 11
51.25846115396807
 21
69.50921106282961
 31
0.0
  0
ARC
  5
60F
330
164
100
AcDbEntity
  8
0
100
AcDbCircle
 10
51.25846115396807
 20
70.50921106282959
 30
0.0
 40
1.0
100
AcDbArc
 50
180.0
 51
270.0
  0
LINE
  5
610
330
164
100
AcDbEntity
  8
0
100
AcDbLine
 10
50.25846115396809
 20
43.50921106282958
 30
0.0
 11
50.25846115396809
 21
36.35760361303788
 31
0.0
  0
LINE
  5
613
330
164
100
AcDbEntity
  8
0
100
AcDbLine
 10
50.25846115396809
 20
77.66081851262132
 30
0.0
 11
50.25846115396809
 21
70.50921106282959
 31
0.0
  0
ARC
  5
614
330
164
100
AcDbEntity
  8
0
100
AcDbCircle
 10
43.25846115396807
 20
57.00921106282961
 30
0.0
 40
22.50555486985381
100
AcDbArc
 50
73.79960753162214
 51
87.39540683286236
  0
ARC
  5
615
330
164
100
AcDbEntity
  8
0
100
AcDbCircle
 10
49.25846115396808
 20
77.66081851262132
 30
0.0
 40
1.0
100
AcDbArc
 50
0.0
 51
73.79960753162214
  0
ARC
  5
616
330
164
100
AcDbEntity
  8
0
100
AcDbCircle
 10
44.25846115396807
 20
78.99203265447581
 30
0.0
 40
0.5
100
AcDbArc
 50
87.39540683286156
 51
180.0
  0
ARC
  5
617
330
164
100
AcDbEntity
  8
0
100
AcDbCircle
 10
43.25846115396807
 20
57.00921106282961
 30
0.0
 40
22.50555486985381
100
AcDbArc
 50
272.6045931671376
 51
286.2003924683778
  0
ARC
  5
618
330
164
100
AcDbEntity
  8
0
100
AcDbCircle
 10
49.25846115396808
 20
36.35760361303788
 30
0.0
 40
1.0
100
AcDbArc
 50
286.2003924683778
 51
0.0
  0
ARC
  5
619
330
164
100
AcDbEntity
  8
0
100
AcDbCircle
 10
44.25846115396807
 20
35.02638947118339
 30
0.0
 40
0.5
100
AcDbArc
 50
180.0
 51
272.6045931671376
  0
ARC
  5
61A
330
164
100
AcDbEntity
  8
0
100
AcDbCircle
 10
22.25846115396809
 20
57.00921106282962
 30
0.0
 40
20.0
100
AcDbArc
 50
329.9999999999997
 51
30.00000000000031
  0
CIRCLE
  5
61B
330
164
100
AcDbEntity
  8
0
100
AcDbCircle
 10
35.24884221073467
 20
49.50921106282958
 30
0.0
 40
2.1
  0
CIRCLE
  5
61C
330
164
100
AcDbEntity
  8
0
100
AcDbCircle
 10
35.24884221073467
 20
64.50921106282959
 30
0.0
 40
2.1
  0
ARC
  5
626
330
164
100
AcDbEntity
  8
0
100
AcDbCircle
 10
35.24884221073467
 20
49.50921106282958
 30
0.0
 40
5.0
100
AcDbArc
 50
270.0
 51
329.9999999999997
  0
ARC
  5
627
330
164
100
AcDbEntity
  8
0
100
AcDbCircle
 10
35.24884221073467
 20
64.50921106282959
 30
0.0
 40
5.000000000000013
100
AcDbArc
 50
30.00000000000031
 51
90.0
  0
LINE
  5
628
330
164
100
AcDbEntity
  8
0
100
AcDbLine
 10
35.24884221073467
 20
44.50921106282957
 30
0.0
 11
30.25846115396809
 21
44.50921106282959
 31
0.0
  0
ARC
  5
629
330
164
100
AcDbEntity
  8
0
100
AcDbCircle
 10
30.25846115396809
 20
43.50921106282959
 30
0.0
 40
1.0
100
AcDbArc
 50
90.0
 51
180.0
  0
LINE
  5
62A
330
164
100
AcDbEntity
  8
0
100
AcDbLine
 10
35.24884221073467
 20
69.50921106282961
 30
0.0
 11
30.25846115396809
 21
69.50921106282962
 31
0.0
  0
ARC
  5
62B
330
164
100
AcDbEntity
  8
0
100
AcDbCircle
 10
30.25846115396809
 20
70.50921106282962
 30
0.0
 40
1.0
100
AcDbArc
 50
180.0
 51
270.0
  0
LINE
  5
62C
330
164
100
AcDbEntity
  8
0
100
AcDbLine
 10
29.25846115396808
 20
43.50921106282959
 30
0.0
 11
29.25846115396808
 21
36.3576036130379
 31
0.0
  0
LINE
  5
62F
330
164
100
AcDbEntity
  8
0
100
AcDbLine
 10
29.25846115396808
 20
77.66081851262133
 30
0.0
 11
29.25846115396808
 21
70.50921106282962
 31
0.0
  0
ARC
  5
630
330
164
100
AcDbEntity
  8
0
100
AcDbCircle
 10
22.25846115396809
 20
57.00921106282962
 30
0.0
 40
22.50555486985381
100
AcDbArc
 50
73.79960753162214
 51
87.39540683286236
  0
ARC
  5
631
330
164
100
AcDbEntity
  8
0
100
AcDbCircle
 10
28.25846115396809
 20
77.66081851262133
 30
0.0
 40
1.0
100
AcDbArc
 50
0.0
 51
73.79960753162214
  0
ARC
  5
632
330
164
100
AcDbEntity
  8
0
100
AcDbCircle
 10
23.25846115396808
 20
78.99203265447581
 30
0.0
 40
0.5
100
AcDbArc
 50
87.39540683286156
 51
180.0
  0
ARC
  5
633
330
164
100
AcDbEntity
  8
0
100
AcDbCircle
 10
22.25846115396809
 20
57.00921106282962
 30
0.0
 40
22.50555486985381
100
AcDbArc
 50
272.6045931671376
 51
286.2003924683778
  0
ARC
  5
634
330
164
100
AcDbEntity
  8
0
100
AcDbCircle
 10
28.25846115396809
 20
36.3576036130379
 30
0.0
 40
1.0
100
AcDbArc
 50
286.2003924683778
 51
0.0
  0
ARC
  5
635
330
164
100
AcDbEntity
  8
0
100
AcDbCircle
 10
23.25846115396808
 20
35.02638947118341
 30
0.0
 40
0.5
100
AcDbArc
 50
180.0
 51
272.6045931671376
  0
ARC
  5
636
330
164
100
AcDbEntity
  8
0
100
AcDbCircle
 10
1.258461153968085
 20
57.00921106282962
 30
0.0
 40
20.0
100
AcDbArc
 50
329.9999999999997
 51
30.00000000000031
  0
CIRCLE
  5
637
330
164
100
AcDbEntity
  8
0
100
AcDbCircle
 10
14.24884221073466
 20
49.50921106282959
 30
0.0
 40
2.1
  0
CIRCLE
  5
638
330
164
100
AcDbEntity
  8
0
100
AcDbCircle
 10
14.24884221073466
 20
64.50921106282961
 30
0.0
 40
2.1
  0
ARC
  5
642
330
164
100
AcDbEntity
  8
0
100
AcDbCircle
 10
14.24884221073466
 20
49.50921106282959
 30
0.0
 40
5.0
100
AcDbArc
 50
270.0
 51
329.9999999999997
  0
ARC
  5
643
330
164
100
AcDbEntity
  8
0
100
AcDbCircle
 10
14.24884221073466
 20
64.50921106282961
 30
0.0
 40
5.000000000000013
100
AcDbArc
 50
30.00000000000031
 51
90.0
  0
LINE
  5
644
330
164
100
AcDbEntity
  8
0
100
AcDbLine
 10
14.24884221073466
 20
44.50921106282959
 30
0.0
 11
9.258461153968083
 21
44.50921106282959
 31
0.0
  0
ARC
  5
645
330
164
100
AcDbEntity
  8
0
100
AcDbCircle
 10
9.258461153968083
 20
43.50921106282959
 30
0.0
 40
1.0
100
AcDbArc
 50
90.0
 51
180.0
  0
LINE
  5
646
330
164
100
AcDbEntity
  8
0
100
AcDbLine
 10
14.24884221073466
 20
69.50921106282962
 30
0.0
 11
9.258461153968083
 21
69.50921106282962
 31
0.0
  0
ARC
  5
647
330
164
100
AcDbEntity
  8
0
100
AcDbCircle
 10
9.258461153968083
 20
70.50921106282962
 30
0.0
 40
1.0
100
AcDbArc
 50
180.0
 51
270.0
  0
LINE
  5
648
330
164
100
AcDbEntity
  8
0
100
AcDbLine
 10
8.258461153968085
 20
43.50921106282959
 30
0.0
 11
8.258461153968085
 21
36.3576036130379
 31
0.0
  0
LINE
  5
64B
330
164
100
AcDbEntity
  8
0
100
AcDbLine
 10
8.258461153968085
 20
77.66081851262133
 30
0.0
 11
8.258461153968085
 21
70.50921106282962
 31
0.0
  0
ARC
  5
64C
330
164
100
AcDbEntity
  8
0
100
AcDbCircle
 10
1.258461153968085
 20
57.00921106282962
 30
0.0
 40
22.50555486985381
100
AcDbArc
 50
73.79960753162214
 51
87.39540683286236
  0
ARC
  5
64D
330
164
100
AcDbEntity
  8
0
100
AcDbCircle
 10
7.258461153968085
 20
77.66081851262133
 30
0.0
 40
1.0
100
AcDbArc
 50
0.0
 51
73.79960753162214
  0
ARC
  5
64E
330
164
100
AcDbEntity
  8
0
100
AcDbCircle
 10
2.258461153968085
 20
78.99203265447581
 30
0.0
 40
0.5
100
AcDbArc
 50
87.39540683286156
 51
180.0
  0
ARC
  5
64F
330
164
100
AcDbEntity
  8
0
100
AcDbCircle
 10
1.258461153968085
 20
57.00921106282962
 30
0.0
 40
22.50555486985381
100
AcDbArc
 50
272.6045931671376
 51
286.2003924683778
  0
ARC
  5
650
330
164
100
AcDbEntity
  8
0
100
AcDbCircle
 10
7.258461153968085
 20
36.3576036130379
 30
0.0
 40
1.0
100
AcDbArc
 50
286.2003924683778
 51
0.0
  0
ARC
  5
651
330
164
100
AcDbEntity
  8
0
100
AcDbCircle
 10
2.258461153968085
 20
35.02638947118341
 30
0.0
 40
0.5
100
AcDbArc
 50
180.0
 51
272.6045931671376
  0
ARC
  5
76A
330
164
100
AcDbEntity
  8
0
100
AcDbCircle
 10
213.5750771415985
 20
21.48620016413713
 30
0.0
 40
22.0
100
AcDbArc
 50
149.9999999999995
 51
210.0000000000005
  0
CIRCLE
  5
76B
330
164
100
AcDbEntity
  8
0
100
AcDbCircle
 10
198.852645277263
 20
12.98620016413713
 30
0.0
 40
2.1
  0
CIRCLE
  5
76C
330
164
100
AcDbEntity
  8
0
100
AcDbCircle
 10
198.852645277263
 20
29.98620016413719
 30
0.0
 40
2.1
  0
ARC
  5
776
330
164
100
AcDbEntity
  8
0
100
AcDbCircle
 10
198.852645277263
 20
12.98620016413713
 30
0.0
 40
4.999999999999987
100
AcDbArc
 50
210.0000000000005
 51
270.0
  0
ARC
  5
777
330
164
100
AcDbEntity
  8
0
100
AcDbCircle
 10
198.852645277263
 20
29.98620016413719
 30
0.0
 40
4.999999999999938
100
AcDbArc
 50
90.0
 51
149.9999999999995
  0
LINE
  5
778
330
164
100
AcDbEntity
  8
0
100
AcDbLine
 10
198.852645277263
 20
34.98620016413713
 30
0.0
 11
205.5750771415985
 21
34.98620016413713
 31
0.0
  0
ARC
  5
779
330
164
100
AcDbEntity
  8
0
100
AcDbCircle
 10
205.5750771415985
 20
35.98620016413714
 30
0.0
 40
1.0
100
AcDbArc
 50
270.0
 51
0.0
  0
LINE
  5
77A
330
164
100
AcDbEntity
  8
0
100
AcDbLine
 10
198.852645277263
 20
7.986200164137129
 30
0.0
 11
205.5750771415985
 21
7.986200164137129
 31
0.0
  0
ARC
  5
77B
330
164
100
AcDbEntity
  8
0
100
AcDbCircle
 10
205.5750771415985
 20
6.986200164137129
 30
0.0
 40
1.0
100
AcDbArc
 50
0.0
 51
90.0
  0
LINE
  5
77D
330
164
100
AcDbEntity
  8
0
100
AcDbLine
 10
206.5750771415984
 20
43.17696693034036
 30
0.0
 11
206.5750771415984
 21
35.98620016413714
 31
0.0
  0
LINE
  5
77F
330
164
100
AcDbEntity
  8
0
100
AcDbLine
 10
206.5750771415984
 20
-0.2045666020661088
 30
0.0
 11
206.5750771415984
 21
6.986200164137129
 31
0.0
  0
ARC
  5
780
330
164
100
AcDbEntity
  8
0
100
AcDbCircle
 10
213.5750771415985
 20
21.48620016413713
 30
0.0
 40
23.50531854708632
100
AcDbArc
 50
92.4913299074455
 51
105.4622635598746
  0
ARC
  5
781
330
164
100
AcDbEntity
  8
0
100
AcDbCircle
 10
207.5750771415985
 20
43.17696693034036
 30
0.0
 40
1.0
100
AcDbArc
 50
105.4622635598746
 51
180.0
  0
ARC
  5
782
330
164
100
AcDbEntity
  8
0
100
AcDbCircle
 10
212.5750771415984
 20
44.46977433033054
 30
0.0
 40
0.5
100
AcDbArc
 50
0.0
 51
92.4913299074455
  0
ARC
  5
783
330
164
100
AcDbEntity
  8
0
100
AcDbCircle
 10
213.5750771415985
 20
21.48620016413713
 30
0.0
 40
23.50531854708632
100
AcDbArc
 50
254.5377364401254
 51
267.5086700925545
  0
ARC
  5
784
330
164
100
AcDbEntity
  8
0
100
AcDbCircle
 10
207.5750771415985
 20
-0.2045666020661088
 30
0.0
 40
1.0
100
AcDbArc
 50
180.0
 51
254.537736440122
  0
ARC
  5
785
330
164
100
AcDbEntity
  8
0
100
AcDbCircle
 10
212.5750771415984
 20
-1.49737400205629
 30
0.0
 40
0.5
100
AcDbArc
 50
267.5086700925545
 51
0.0
  0
ARC
  5
786
330
164
100
AcDbEntity
  8
0
100
AcDbCircle
 10
190.8250771415984
 20
21.48620016413713
 30
0.0
 40
22.0
100
AcDbArc
 50
149.9999999999995
 51
210.0000000000005
  0
CIRCLE
  5
787
330
164
100
AcDbEntity
  8
0
100
AcDbCircle
 10
176.102645277263
 20
12.98620016413713
 30
0.0
 40
2.1
  0
CIRCLE
  5
788
330
164
100
AcDbEntity
  8
0
100
AcDbCircle
 10
176.102645277263
 20
29.98620016413719
 30
0.0
 40
2.1
  0
ARC
  5
792
330
164
100
AcDbEntity
  8
0
100
AcDbCircle
 10
176.102645277263
 20
12.98620016413713
 30
0.0
 40
4.999999999999987
100
AcDbArc
 50
210.0000000000005
 51
270.0
  0
ARC
  5
793
330
164
100
AcDbEntity
  8
0
100
AcDbCircle
 10
176.102645277263
 20
29.98620016413719
 30
0.0
 40
4.999999999999938
100
AcDbArc
 50
90.0
 51
149.9999999999995
  0
LINE
  5
794
330
164
100
AcDbEntity
  8
0
100
AcDbLine
 10
176.102645277263
 20
34.98620016413713
 30
0.0
 11
182.8250771415984
 21
34.98620016413713
 31
0.0
  0
ARC
  5
795
330
164
100
AcDbEntity
  8
0
100
AcDbCircle
 10
182.8250771415984
 20
35.98620016413714
 30
0.0
 40
1.0
100
AcDbArc
 50
270.0
 51
0.0
  0
LINE
  5
796
330
164
100
AcDbEntity
  8
0
100
AcDbLine
 10
176.102645277263
 20
7.986200164137129
 30
0.0
 11
182.8250771415984
 21
7.986200164137129
 31
0.0
  0
ARC
  5
797
330
164
100
AcDbEntity
  8
0
100
AcDbCircle
 10
182.8250771415984
 20
6.986200164137129
 30
0.0
 40
1.0
100
AcDbArc
 50
0.0
 51
90.0
  0
LINE
  5
799
330
164
100
AcDbEntity
  8
0
100
AcDbLine
 10
183.8250771415984
 20
43.17696693034036
 30
0.0
 11
183.8250771415984
 21
35.98620016413714
 31
0.0
  0
LINE
  5
79B
330
164
100
AcDbEntity
  8
0
100
AcDbLine
 10
183.8250771415984
 20
-0.2045666020661088
 30
0.0
 11
183.8250771415984
 21
6.986200164137129
 31
0.0
  0
ARC
  5
79C
330
164
100
AcDbEntity
  8
0
100
AcDbCircle
 10
190.8250771415984
 20
21.48620016413713
 30
0.0
 40
23.50531854708632
100
AcDbArc
 50
92.49132990744552
 51
105.4622635598746
  0
ARC
  5
79D
330
164
100
AcDbEntity
  8
0
100
AcDbCircle
 10
184.8250771415984
 20
43.17696693034036
 30
0.0
 40
1.0
100
AcDbArc
 50
105.4622635598746
 51
180.0
  0
ARC
  5
79E
330
164
100
AcDbEntity
  8
0
100
AcDbCircle
 10
189.8250771415984
 20
44.46977433033054
 30
0.0
 40
0.5
100
AcDbArc
 50
0.0
 51
92.49132990744552
  0
ARC
  5
79F
330
164
100
AcDbEntity
  8
0
100
AcDbCircle
 10
190.8250771415984
 20
21.48620016413713
 30
0.0
 40
23.50531854708632
100
AcDbArc
 50
254.5377364401254
 51
267.5086700925545
  0
ARC
  5
7A0
330
164
100
AcDbEntity
  8
0
100
AcDbCircle
 10
184.8250771415984
 20
-0.2045666020661088
 30
0.0
 40
1.0
100
AcDbArc
 50
180.0
 51
254.537736440122
  0
ARC
  5
7A1
330
164
100
AcDbEntity
  8
0
100
AcDbCircle
 10
189.8250771415984
 20
-1.49737400205629
 30
0.0
 40
0.5
100
AcDbArc
 50
267.5086700925545
 51
0.0
  0
ARC
  5
7A2
330
164
100
AcDbEntity
  8
0
100
AcDbCircle
 10
169.8837181060747
 20
60.12833662471166
 30
0.0
 40
22.0
100
AcDbArc
 50
329.9999999999995
 51
30.00000000000049
  0
CIRCLE
  5
7A3
330
164
100
AcDbEntity
  8
0
100
AcDbCircle
 10
184.6061499704101
 20
68.62833662471165
 30
0.0
 40
2.1
  0
CIRCLE
  5
7A4
330
164
100
AcDbEntity
  8
0
100
AcDbCircle
 10
184.6061499704101
 20
51.62833662471161
 30
0.0
 40
2.1
  0
ARC
  5
7AE
330
164
100
AcDbEntity
  8
0
100
AcDbCircle
 10
184.6061499704101
 20
68.62833662471165
 30
0.0
 40
4.999999999999987
100
AcDbArc
 50
30.00000000000049
 51
90.0
  0
ARC
  5
7AF
330
164
100
AcDbEntity
  8
0
100
AcDbCircle
 10
184.6061499704101
 20
51.62833662471161
 30
0.0
 40
4.999999999999938
100
AcDbArc
 50
270.0
 51
329.9999999999995
  0
LINE
  5
7B0
330
164
100
AcDbEntity
  8
0
100
AcDbLine
 10
184.6061499704101
 20
46.62833662471165
 30
0.0
 11
177.8837181060746
 21
46.62833662471165
 31
0.0
  0
ARC
  5
7B1
330
164
100
AcDbEntity
  8
0
100
AcDbCircle
 10
177.8837181060746
 20
45.62833662471166
 30
0.0
 40
1.0
100
AcDbArc
 50
90.0
 51
180.0
  0
LINE
  5
7B2
330
164
100
AcDbEntity
  8
0
100
AcDbLine
 10
184.6061499704101
 20
73.62833662471165
 30
0.0
 11
177.8837181060746
 21
73.62833662471165
 31
0.0
  0
ARC
  5
7B3
330
164
100
AcDbEntity
  8
0
100
AcDbCircle
 10
177.8837181060746
 20
74.62833662471165
 30
0.0
 40
1.0
100
AcDbArc
 50
180.0
 51
270.0
  0
LINE
  5
7B5
330
164
100
AcDbEntity
  8
0
100
AcDbLine
 10
176.8837181060746
 20
38.43756985850843
 30
0.0
 11
176.8837181060746
 21
45.62833662471166
 31
0.0
  0
LINE
  5
7B7
330
164
100
AcDbEntity
  8
0
100
AcDbLine
 10
176.8837181060746
 20
81.81910339091491
 30
0.0
 11
176.8837181060746
 21
74.62833662471165
 31
0.0
  0
ARC
  5
7B8
330
164
100
AcDbEntity
  8
0
100
AcDbCircle
 10
169.8837181060747
 20
60.12833662471166
 30
0.0
 40
23.50531854708632
100
AcDbArc
 50
272.4913299074455
 51
285.4622635598746
  0
ARC
  5
7B9
330
164
100
AcDbEntity
  8
0
100
AcDbCircle
 10
175.8837181060746
 20
38.43756985850843
 30
0.0
 40
1.0
100
AcDbArc
 50
285.4622635598746
 51
0.0
  0
ARC
  5
7BA
330
164
100
AcDbEntity
  8
0
100
AcDbCircle
 10
170.8837181060747
 20
37.14476245851825
 30
0.0
 40
0.5
100
AcDbArc
 50
180.0
 51
272.4913299074455
  0
ARC
  5
7BB
330
164
100
AcDbEntity
  8
0
100
AcDbCircle
 10
169.8837181060747
 20
60.12833662471166
 30
0.0
 40
23.50531854708632
100
AcDbArc
 50
74.53773644012539
 51
87.50867009255449
  0
ARC
  5
7BC
330
164
100
AcDbEntity
  8
0
100
AcDbCircle
 10
175.8837181060746
 20
81.81910339091491
 30
0.0
 40
1.0
100
AcDbArc
 50
0.0
 51
74.53773644012203
  0
ARC
  5
7BD
330
164
100
AcDbEntity
  8
0
100
AcDbCircle
 10
170.8837181060747
 20
83.11191079090511
 30
0.0
 40
0.5
100
AcDbArc
 50
87.50867009255449
 51
180.0
  0
ARC
  5
7BE
330
164
100
AcDbEntity
  8
0
100
AcDbCircle
 10
192.6337181060747
 20
60.12833662471166
 30
0.0
 40
22.0
100
AcDbArc
 50
329.9999999999995
 51
30.00000000000049
  0
CIRCLE
  5
7BF
330
164
100
AcDbEntity
  8
0
100
AcDbCircle
 10
207.3561499704101
 20
68.62833662471165
 30
0.0
 40
2.1
  0
CIRCLE
  5
7C0
330
164
100
AcDbEntity
  8
0
100
AcDbCircle
 10
207.3561499704102
 20
51.62833662471161
 30
0.0
 40
2.1
  0
ARC
  5
7CA
330
164
100
AcDbEntity
  8
0
100
AcDbCircle
 10
207.3561499704101
 20
68.62833662471165
 30
0.0
 40
4.999999999999987
100
AcDbArc
 50
30.00000000000049
 51
90.0
  0
ARC
  5
7CB
330
164
100
AcDbEntity
  8
0
100
AcDbCircle
 10
207.3561499704102
 20
51.62833662471161
 30
0.0
 40
4.999999999999938
100
AcDbArc
 50
270.0
 51
329.9999999999995
  0
LINE
  5
7CC
330
164
100
AcDbEntity
  8
0
100
AcDbLine
 10
207.3561499704102
 20
46.62833662471165
 30
0.0
 11
200.6337181060747
 21
46.62833662471165
 31
0.0
  0
ARC
  5
7CD
330
164
100
AcDbEntity
  8
0
100
AcDbCircle
 10
200.6337181060747
 20
45.62833662471166
 30
0.0
 40
1.0
100
AcDbArc
 50
90.0
 51
180.0
  0
LINE
  5
7CE
330
164
100
AcDbEntity
  8
0
100
AcDbLine
 10
207.3561499704101
 20
73.62833662471165
 30
0.0
 11
200.6337181060747
 21
73.62833662471165
 31
0.0
  0
ARC
  5
7CF
330
164
100
AcDbEntity
  8
0
100
AcDbCircle
 10
200.6337181060747
 20
74.62833662471165
 30
0.0
 40
1.0
100
AcDbArc
 50
180.0
 51
270.0
  0
LINE
  5
7D1
330
164
100
AcDbEntity
  8
0
100
AcDbLine
 10
199.6337181060746
 20
38.43756985850843
 30
0.0
 11
199.6337181060746
 21
45.62833662471166
 31
0.0
  0
LINE
  5
7D3
330
164
100
AcDbEntity
  8
0
100
AcDbLine
 10
199.6337181060746
 20
81.81910339091491
 30
0.0
 11
199.6337181060746
 21
74.62833662471165
 31
0.0
  0
ARC
  5
7D4
330
164
100
AcDbEntity
  8
0
100
AcDbCircle
 10
192.6337181060747
 20
60.12833662471166
 30
0.0
 40
23.50531854708632
100
AcDbArc
 50
272.4913299074455
 51
285.4622635598746
  0
ARC
  5
7D5
330
164
100
AcDbEntity
  8
0
100
AcDbCircle
 10
198.6337181060746
 20
38.43756985850843
 30
0.0
 40
1.0
100
AcDbArc
 50
285.4622635598746
 51
0.0
  0
ARC
  5
7D6
330
164
100
AcDbEntity
  8
0
100
AcDbCircle
 10
193.6337181060746
 20
37.14476245851825
 30
0.0
 40
0.5
100
AcDbArc
 50
180.0
 51
272.4913299074455
  0
ARC
  5
7D7
330
164
100
AcDbEntity
  8
0
100
AcDbCircle
 10
192.6337181060747
 20
60.12833662471166
 30
0.0
 40
23.50531854708632
100
AcDbArc
 50
74.53773644012539
 51
87.50867009255449
  0
ARC
  5
7D8
330
164
100
AcDbEntity
  8
0
100
AcDbCircle
 10
198.6337181060746
 20
81.81910339091491
 30
0.0
 40
1.0
100
AcDbArc
 50
0.0
 51
74.53773644012203
  0
ARC
  5
7D9
330
164
100
AcDbEntity
  8
0
100
AcDbCircle
 10
193.6337181060746
 20
83.11191079090511
 30
0.0
 40
0.5
100
AcDbArc
 50
87.50867009255449
 51
180.0
  0
LINE
  5
82F
330
164
100
AcDbEntity
  8
0
100
AcDbLine
 10
2.008461153968085
 20
61.16613300099493
 30
0.0
 11
5.009165309484282
 21
59.43367564904922
 31
0.0
  0
LINE
  5
830
330
164
100
AcDbEntity
  8
0
100
AcDbLine
 10
5.259165309484282
 20
59.000662947157
 30
0.0
 11
5.259165309484282
 21
55.01775917850224
 31
0.0
  0
LINE
  5
831
330
164
100
AcDbEntity
  8
0
100
AcDbLine
 10
5.009165309484281
 20
54.58474647661002
 30
0.0
 11
2.008461153968085
 21
52.85228912466432
 31
0.0
  0
ARC
  5
835
330
164
100
AcDbEntity
  8
0
100
AcDbCircle
 10
2.258461153968085
 20
61.59914570288715
 30
0.0
 40
0.5
100
AcDbArc
 50
180.0
 51
239.9999999999999
  0
ARC
  5
836
330
164
100
AcDbEntity
  8
0
100
AcDbCircle
 10
4.759165309484282
 20
59.000662947157
 30
0.0
 40
0.5
100
AcDbArc
 50
0.0
 51
59.99999999999992
  0
ARC
  5
837
330
164
100
AcDbEntity
  8
0
100
AcDbCircle
 10
4.759165309484282
 20
55.01775917850224
 30
0.0
 40
0.5
100
AcDbArc
 50
300.0
 51
0.0
  0
ARC
  5
838
330
164
100
AcDbEntity
  8
0
100
AcDbCircle
 10
2.258461153968085
 20
52.4192764227721
 30
0.0
 40
0.5
100
AcDbArc
 50
120.0
 51
180.0
  0
LINE
  5
83A
330
164
100
AcDbEntity
  8
0
100
AcDbLine
 10
1.758461153968085
 20
78.99203265447581
 30
0.0
 11
1.758461153968081
 21
61.59914570288715
 31
0.0
  0
LINE
  5
83B
330
164
100
AcDbEntity
  8
0
100
AcDbLine
 10
1.758461153968085
 20
52.4192764227721
 30
0.0
 11
1.758461153968085
 21
35.02638947118341
 31
0.0
  0
ARC
  5
83C
330
164
100
AcDbEntity
  8
0
100
AcDbCircle
 10
23.2584611539681
 20
52.41927642277208
 30
0.0
 40
0.5
100
AcDbArc
 50
120.0
 51
180.0
  0
LINE
  5
83D
330
164
100
AcDbEntity
  8
0
100
AcDbLine
 10
23.0084611539681
 20
61.16613300099492
 30
0.0
 11
26.00916530948429
 21
59.43367564904921
 31
0.0
  0
ARC
  5
83E
330
164
100
AcDbEntity
  8
0
100
AcDbCircle
 10
23.2584611539681
 20
61.59914570288713
 30
0.0
 40
0.5
100
AcDbArc
 50
180.0
 51
240.0
  0
LINE
  5
83F
330
164
100
AcDbEntity
  8
0
100
AcDbLine
 10
26.25916530948429
 20
59.00066294715699
 30
0.0
 11
26.25916530948429
 21
55.01775917850222
 31
0.0
  0
ARC
  5
840
330
164
100
AcDbEntity
  8
0
100
AcDbCircle
 10
25.75916530948429
 20
59.00066294715699
 30
0.0
 40
0.5
100
AcDbArc
 50
0.0
 51
59.99999999999999
  0
LINE
  5
841
330
164
100
AcDbEntity
  8
0
100
AcDbLine
 10
26.00916530948429
 20
54.58474647661001
 30
0.0
 11
23.0084611539681
 21
52.8522891246643
 31
0.0
  0
ARC
  5
842
330
164
100
AcDbEntity
  8
0
100
AcDbCircle
 10
25.75916530948429
 20
55.01775917850222
 30
0.0
 40
0.5
100
AcDbArc
 50
300.0
 51
0.0
  0
LINE
  5
843
330
164
100
AcDbEntity
  8
0
100
AcDbLine
 10
22.75846115396809
 20
78.99203265447579
 30
0.0
 11
22.75846115396809
 21
61.59914570288713
 31
0.0
  0
LINE
  5
844
330
164
100
AcDbEntity
  8
0
100
AcDbLine
 10
22.75846115396809
 20
52.41927642277208
 30
0.0
 11
22.75846115396809
 21
35.02638947118339
 31
0.0
  0
ARC
  5
845
330
164
100
AcDbEntity
  8
0
100
AcDbCircle
 10
44.25846115396807
 20
52.41927642277208
 30
0.0
 40
0.5
100
AcDbArc
 50
120.0
 51
180.0
  0
LINE
  5
846
330
164
100
AcDbEntity
  8
0
100
AcDbLine
 10
44.00846115396807
 20
61.16613300099492
 30
0.0
 11
47.00916530948426
 21
59.43367564904921
 31
0.0
  0
ARC
  5
847
330
164
100
AcDbEntity
  8
0
100
AcDbCircle
 10
44.25846115396807
 20
61.59914570288713
 30
0.0
 40
0.5
100
AcDbArc
 50
180.0
 51
240.0
  0
LINE
  5
848
330
164
100
AcDbEntity
  8
0
100
AcDbLine
 10
47.25916530948427
 20
59.00066294715699
 30
0.0
 11
47.25916530948427
 21
55.01775917850222
 31
0.0
  0
ARC
  5
849
330
164
100
AcDbEntity
  8
0
100
AcDbCircle
 10
46.75916530948426
 20
59.00066294715699
 30
0.0
 40
0.5
100
AcDbArc
 50
0.0
 51
59.99999999999999
  0
LINE
  5
84A
330
164
100
AcDbEntity
  8
0
100
AcDbLine
 10
47.00916530948426
 20
54.58474647661001
 30
0.0
 11
44.00846115396807
 21
52.8522891246643
 31
0.0
  0
ARC
  5
84B
330
164
100
AcDbEntity
  8
0
100
AcDbCircle
 10
46.75916530948426
 20
55.01775917850222
 30
0.0
 40
0.5
100
AcDbArc
 50
300.0
 51
0.0
  0
LINE
  5
84C
330
164
100
AcDbEntity
  8
0
100
AcDbLine
 10
43.75846115396806
 20
78.99203265447579
 30
0.0
 11
43.75846115396806
 21
61.59914570288713
 31
0.0
  0
LINE
  5
84D
330
164
100
AcDbEntity
  8
0
100
AcDbLine
 10
43.75846115396806
 20
52.41927642277208
 30
0.0
 11
43.75846115396806
 21
35.02638947118339
 31
0.0
  0
ARC
  5
84E
330
164
100
AcDbEntity
  8
0
100
AcDbCircle
 10
65.25846115396804
 20
52.41927642277208
 30
0.0
 40
0.5
100
AcDbArc
 50
120.0
 51
180.0
  0
LINE
  5
84F
330
164
100
AcDbEntity
  8
0
100
AcDbLine
 10
65.00846115396804
 20
61.16613300099492
 30
0.0
 11
68.00916530948424
 21
59.43367564904921
 31
0.0
  0
ARC
  5
850
330
164
100
AcDbEntity
  8
0
100
AcDbCircle
 10
65.25846115396804
 20
61.59914570288713
 30
0.0
 40
0.5
100
AcDbArc
 50
180.0
 51
240.0
  0
LINE
  5
851
330
164
100
AcDbEntity
  8
0
100
AcDbLine
 10
68.25916530948425
 20
59.00066294715699
 30
0.0
 11
68.25916530948425
 21
55.01775917850222
 31
0.0
  0
ARC
  5
852
330
164
100
AcDbEntity
  8
0
100
AcDbCircle
 10
67.75916530948425
 20
59.00066294715699
 30
0.0
 40
0.5
100
AcDbArc
 50
0.0
 51
59.99999999999999
  0
LINE
  5
853
330
164
100
AcDbEntity
  8
0
100
AcDbLine
 10
68.00916530948424
 20
54.58474647661001
 30
0.0
 11
65.00846115396804
 21
52.8522891246643
 31
0.0
  0
ARC
  5
854
330
164
100
AcDbEntity
  8
0
100
AcDbCircle
 10
67.75916530948425
 20
55.01775917850222
 30
0.0
 40
0.5
100
AcDbArc
 50
300.0
 51
0.0
  0
LINE
  5
855
330
164
100
AcDbEntity
  8
0
100
AcDbLine
 10
64.75846115396804
 20
78.99203265447579
 30
0.0
 11
64.75846115396804
 21
61.59914570288713
 31
0.0
  0
LINE
  5
856
330
164
100
AcDbEntity
  8
0
100
AcDbLine
 10
64.75846115396804
 20
52.41927642277208
 30
0.0
 11
64.75846115396804
 21
35.02638947118339
 31
0.0
  0
ARC
  5
857
330
164
100
AcDbEntity
  8
0
100
AcDbCircle
 10
86.25846115396806
 20
52.41927642277208
 30
0.0
 40
0.5
100
AcDbArc
 50
120.0
 51
180.0
  0
LINE
  5
858
330
164
100
AcDbEntity
  8
0
100
AcDbLine
 10
86.00846115396805
 20
61.16613300099492
 30
0.0
 11
89.00916530948427
 21
59.43367564904921
 31
0.0
  0
ARC
  5
859
330
164
100
AcDbEntity
  8
0
100
AcDbCircle
 10
86.25846115396806
 20
61.59914570288713
 30
0.0
 40
0.5
100
AcDbArc
 50
180.0
 51
240.0
  0
LINE
  5
85A
330
164
100
AcDbEntity
  8
0
100
AcDbLine
 10
89.25916530948425
 20
59.00066294715699
 30
0.0
 11
89.25916530948425
 21
55.01775917850222
 31
0.0
  0
ARC
  5
85B
330
164
100
AcDbEntity
  8
0
100
AcDbCircle
 10
88.75916530948426
 20
59.00066294715699
 30
0.0
 40
0.5
100
AcDbArc
 50
0.0
 51
59.99999999999999
  0
LINE
  5
85C
330
164
100
AcDbEntity
  8
0
100
AcDbLine
 10
89.00916530948425
 20
54.58474647661001
 30
0.0
 11
86.00846115396805
 21
52.8522891246643
 31
0.0
  0
ARC
  5
85D
330
164
100
AcDbEntity
  8
0
100
AcDbCircle
 10
88.75916530948426
 20
55.01775917850222
 30
0.0
 40
0.5
100
AcDbArc
 50
300.0
 51
0.0
  0
LINE
  5
85E
330
164
100
AcDbEntity
  8
0
100
AcDbLine
 10
85.75846115396805
 20
78.99203265447579
 30
0.0
 11
85.75846115396805
 21
61.59914570288713
 31
0.0
  0
LINE
  5
85F
330
164
100
AcDbEntity
  8
0
100
AcDbLine
 10
85.75846115396805
 20
52.41927642277208
 30
0.0
 11
85.75846115396805
 21
35.02638947118339
 31
0.0
  0
ARC
  5
860
330
164
100
AcDbEntity
  8
0
100
AcDbCircle
 10
107.258461153968
 20
52.41927642277208
 30
0.0
 40
0.5
100
AcDbArc
 50
120.0
 51
180.0
  0
LINE
  5
861
330
164
100
AcDbEntity
  8
0
100
AcDbLine
 10
107.008461153968
 20
61.16613300099492
 30
0.0
 11
110.0091653094842
 21
59.43367564904921
 31
0.0
  0
ARC
  5
862
330
164
100
AcDbEntity
  8
0
100
AcDbCircle
 10
107.258461153968
 20
61.59914570288713
 30
0.0
 40
0.5
100
AcDbArc
 50
180.0
 51
240.0
  0
LINE
  5
863
330
164
100
AcDbEntity
  8
0
100
AcDbLine
 10
110.2591653094842
 20
59.00066294715699
 30
0.0
 11
110.2591653094842
 21
55.01775917850222
 31
0.0
  0
ARC
  5
864
330
164
100
AcDbEntity
  8
0
100
AcDbCircle
 10
109.7591653094842
 20
59.00066294715699
 30
0.0
 40
0.5
100
AcDbArc
 50
0.0
 51
59.99999999999999
  0
LINE
  5
865
330
164
100
AcDbEntity
  8
0
100
AcDbLine
 10
110.0091653094842
 20
54.58474647661001
 30
0.0
 11
107.008461153968
 21
52.8522891246643
 31
0.0
  0
ARC
  5
866
330
164
100
AcDbEntity
  8
0
100
AcDbCircle
 10
109.7591653094842
 20
55.01775917850222
 30
0.0
 40
0.5
100
AcDbArc
 50
300.0
 51
0.0
  0
LINE
  5
867
330
164
100
AcDbEntity
  8
0
100
AcDbLine
 10
106.758461153968
 20
78.99203265447579
 30
0.0
 11
106.758461153968
 21
61.59914570288713
 31
0.0
  0
LINE
  5
868
330
164
100
AcDbEntity
  8
0
100
AcDbLine
 10
106.758461153968
 20
52.41927642277208
 30
0.0
 11
106.758461153968
 21
35.02638947118339
 31
0.0
  0
ARC
  5
869
330
164
100
AcDbEntity
  8
0
100
AcDbCircle
 10
128.258461153968
 20
52.41927642277208
 30
0.0
 40
0.5
100
AcDbArc
 50
120.0
 51
180.0
  0
LINE
  5
86A
330
164
100
AcDbEntity
  8
0
100
AcDbLine
 10
128.008461153968
 20
61.16613300099492
 30
0.0
 11
131.0091653094842
 21
59.43367564904921
 31
0.0
  0
ARC
  5
86B
330
164
100
AcDbEntity
  8
0
100
AcDbCircle
 10
128.258461153968
 20
61.59914570288713
 30
0.0
 40
0.5
100
AcDbArc
 50
180.0
 51
240.0
  0
LINE
  5
86C
330
164
100
AcDbEntity
  8
0
100
AcDbLine
 10
131.2591653094842
 20
59.00066294715699
 30
0.0
 11
131.2591653094842
 21
55.01775917850222
 31
0.0
  0
ARC
  5
86D
330
164
100
AcDbEntity
  8
0
100
AcDbCircle
 10
130.7591653094842
 20
59.00066294715699
 30
0.0
 40
0.5
100
AcDbArc
 50
0.0
 51
59.99999999999999
  0
LINE
  5
86E
330
164
100
AcDbEntity
  8
0
100
AcDbLine
 10
131.0091653094842
 20
54.58474647661001
 30
0.0
 11
128.008461153968
 21
52.8522891246643
 31
0.0
  0
ARC
  5
86F
330
164
100
AcDbEntity
  8
0
100
AcDbCircle
 10
130.7591653094842
 20
55.01775917850222
 30
0.0
 40
0.5
100
AcDbArc
 50
300.0
 51
0.0
  0
LINE
  5
870
330
164
100
AcDbEntity
  8
0
100
AcDbLine
 10
127.758461153968
 20
78.99203265447579
 30
0.0
 11
127.758461153968
 21
61.59914570288713
 31
0.0
  0
LINE
  5
871
330
164
100
AcDbEntity
  8
0
100
AcDbLine
 10
127.758461153968
 20
52.41927642277208
 30
0.0
 11
127.758461153968
 21
35.02638947118339
 31
0.0
  0
ARC
  5
872
330
164
100
AcDbEntity
  8
0
100
AcDbCircle
 10
149.258461153968
 20
52.41927642277207
 30
0.0
 40
0.5
100
AcDbArc
 50
120.0
 51
180.0
  0
LINE
  5
873
330
164
100
AcDbEntity
  8
0
100
AcDbLine
 10
149.008461153968
 20
61.16613300099491
 30
0.0
 11
152.0091653094842
 21
59.43367564904919
 31
0.0
  0
ARC
  5
874
330
164
100
AcDbEntity
  8
0
100
AcDbCircle
 10
149.258461153968
 20
61.59914570288712
 30
0.0
 40
0.5
100
AcDbArc
 50
180.0
 51
240.0
  0
LINE
  5
875
330
164
100
AcDbEntity
  8
0
100
AcDbLine
 10
152.2591653094842
 20
59.00066294715697
 30
0.0
 11
152.2591653094842
 21
55.01775917850221
 31
0.0
  0
ARC
  5
876
330
164
100
AcDbEntity
  8
0
100
AcDbCircle
 10
151.7591653094842
 20
59.00066294715697
 30
0.0
 40
0.5
100
AcDbArc
 50
0.0
 51
59.99999999999999
  0
LINE
  5
877
330
164
100
AcDbEntity
  8
0
100
AcDbLine
 10
152.0091653094842
 20
54.58474647660999
 30
0.0
 11
149.008461153968
 21
52.85228912466429
 31
0.0
  0
ARC
  5
878
330
164
100
AcDbEntity
  8
0
100
AcDbCircle
 10
151.7591653094842
 20
55.01775917850221
 30
0.0
 40
0.5
100
AcDbArc
 50
300.0
 51
0.0
  0
LINE
  5
879
330
164
100
AcDbEntity
  8
0
100
AcDbLine
 10
148.758461153968
 20
78.99203265447578
 30
0.0
 11
148.758461153968
 21
61.59914570288712
 31
0.0
  0
LINE
  5
87A
330
164
100
AcDbEntity
  8
0
100
AcDbLine
 10
148.758461153968
 20
52.41927642277207
 30
0.0
 11
148.758461153968
 21
35.02638947118338
 31
0.0
  0
ARC
  5
895
330
164
100
AcDbEntity
  8
0
100
AcDbCircle
 10
18.9999992602029
 20
24.5899342495828
 30
0.0
 40
0.5
100
AcDbArc
 50
299.9999999999999
 51
0.0
  0
LINE
  5
896
330
164
100
AcDbEntity
  8
0
100
AcDbLine
 10
19.2499992602029
 20
15.84307767135995
 30
0.0
 11
16.24929510468671
 21
17.57553502330567
 31
0.0
  0
ARC
  5
897
330
164
100
AcDbEntity
  8
0
100
AcDbCircle
 10
18.9999992602029
 20
15.41006496946774
 30
0.0
 40
0.5
100
AcDbArc
 50
0.0
 51
59.99999999999986
  0
LINE
  5
898
330
164
100
AcDbEntity
  8
0
100
AcDbLine
 10
15.99929510468671
 20
18.00854772519788
 30
0.0
 11
15.99929510468671
 21
21.99145149385265
 31
0.0
  0
ARC
  5
899
330
164
100
AcDbEntity
  8
0
100
AcDbCircle
 10
16.49929510468671
 20
18.00854772519788
 30
0.0
 40
0.5
100
AcDbArc
 50
180.0
 51
239.9999999999998
  0
LINE
  5
89A
330
164
100
AcDbEntity
  8
0
100
AcDbLine
 10
16.24929510468671
 20
22.42446419574486
 30
0.0
 11
19.2499992602029
 21
24.15692154769057
 31
0.0
  0
ARC
  5
89B
330
164
100
AcDbEntity
  8
0
100
AcDbCircle
 10
16.49929510468671
 20
21.99145149385265
 30
0.0
 40
0.5
100
AcDbArc
 50
120.0000000000001
 51
180.0
  0
LINE
  5
89C
330
164
100
AcDbEntity
  8
0
100
AcDbLine
 10
19.4999992602029
 20
-1.98282198212091
 30
0.0
 11
19.4999992602029
 21
15.41006496946774
 31
0.0
  0
LINE
  5
89D
330
164
100
AcDbEntity
  8
0
100
AcDbLine
 10
19.4999992602029
 20
24.5899342495828
 30
0.0
 11
19.4999992602029
 21
41.98282120117148
 31
0.0
  0
ARC
  5
8DD
330
164
100
AcDbEntity
  8
0
100
AcDbCircle
 10
39.99999926020291
 20
24.5899342495828
 30
0.0
 40
0.5
100
AcDbArc
 50
300.0
 51
0.0
  0
LINE
  5
8DE
330
164
100
AcDbEntity
  8
0
100
AcDbLine
 10
40.24999926020291
 20
15.84307767135995
 30
0.0
 11
37.24929510468672
 21
17.57553502330567
 31
0.0
  0
ARC
  5
8DF
330
164
100
AcDbEntity
  8
0
100
AcDbCircle
 10
39.99999926020291
 20
15.41006496946774
 30
0.0
 40
0.5
100
AcDbArc
 50
0.0
 51
59.99999999999979
  0
LINE
  5
8E0
330
164
100
AcDbEntity
  8
0
100
AcDbLine
 10
36.99929510468672
 20
18.00854772519788
 30
0.0
 11
36.99929510468672
 21
21.99145149385265
 31
0.0
  0
ARC
  5
8E1
330
164
100
AcDbEntity
  8
0
100
AcDbCircle
 10
37.49929510468672
 20
18.00854772519788
 30
0.0
 40
0.5
100
AcDbArc
 50
180.0
 51
239.9999999999998
  0
LINE
  5
8E2
330
164
100
AcDbEntity
  8
0
100
AcDbLine
 10
37.24929510468672
 20
22.42446419574486
 30
0.0
 11
40.24999926020291
 21
24.15692154769057
 31
0.0
  0
ARC
  5
8E3
330
164
100
AcDbEntity
  8
0
100
AcDbCircle
 10
37.49929510468672
 20
21.99145149385265
 30
0.0
 40
0.5
100
AcDbArc
 50
120.0000000000002
 51
180.0
  0
LINE
  5
8E4
330
164
100
AcDbEntity
  8
0
100
AcDbLine
 10
40.49999926020291
 20
-1.98282198212091
 30
0.0
 11
40.49999926020291
 21
15.41006496946774
 31
0.0
  0
LINE
  5
8E5
330
164
100
AcDbEntity
  8
0
100
AcDbLine
 10
40.49999926020291
 20
24.5899342495828
 30
0.0
 11
40.49999926020291
 21
41.98282120117148
 31
0.0
  0
ARC
  5
8E6
330
164
100
AcDbEntity
  8
0
100
AcDbCircle
 10
60.99999926020291
 20
24.5899342495828
 30
0.0
 40
0.5
100
AcDbArc
 50
300.0
 51
0.0
  0
LINE
  5
8E7
330
164
100
AcDbEntity
  8
0
100
AcDbLine
 10
61.24999926020291
 20
15.84307767135995
 30
0.0
 11
58.24929510468671
 21
17.57553502330567
 31
0.0
  0
ARC
  5
8E8
330
164
100
AcDbEntity
  8
0
100
AcDbCircle
 10
60.99999926020291
 20
15.41006496946774
 30
0.0
 40
0.5
100
AcDbArc
 50
0.0
 51
59.99999999999997
  0
LINE
  5
8E9
330
164
100
AcDbEntity
  8
0
100
AcDbLine
 10
57.99929510468672
 20
18.00854772519788
 30
0.0
 11
57.99929510468672
 21
21.99145149385265
 31
0.0
  0
ARC
  5
8EA
330
164
100
AcDbEntity
  8
0
100
AcDbCircle
 10
58.49929510468672
 20
18.00854772519788
 30
0.0
 40
0.5
100
AcDbArc
 50
180.0
 51
239.9999999999999
  0
LINE
  5
8EB
330
164
100
AcDbEntity
  8
0
100
AcDbLine
 10
58.24929510468671
 20
22.42446419574486
 30
0.0
 11
61.24999926020291
 21
24.15692154769057
 31
0.0
  0
ARC
  5
8EC
330
164
100
AcDbEntity
  8
0
100
AcDbCircle
 10
58.49929510468672
 20
21.99145149385265
 30
0.0
 40
0.5
100
AcDbArc
 50
120.0
 51
180.0
  0
LINE
  5
8ED
330
164
100
AcDbEntity
  8
0
100
AcDbLine
 10
61.49999926020291
 20
-1.98282198212091
 30
0.0
 11
61.49999926020291
 21
15.41006496946774
 31
0.0
  0
LINE
  5
8EE
330
164
100
AcDbEntity
  8
0
100
AcDbLine
 10
61.49999926020291
 20
24.5899342495828
 30
0.0
 11
61.49999926020291
 21
41.98282120117148
 31
0.0
  0
ARC
  5
8EF
330
164
100
AcDbEntity
  8
0
100
AcDbCircle
 10
81.99999926020291
 20
24.5899342495828
 30
0.0
 40
0.5
100
AcDbArc
 50
300.0
 51
0.0
  0
LINE
  5
8F0
330
164
100
AcDbEntity
  8
0
100
AcDbLine
 10
82.24999926020291
 20
15.84307767135995
 30
0.0
 11
79.24929510468672
 21
17.57553502330567
 31
0.0
  0
ARC
  5
8F1
330
164
100
AcDbEntity
  8
0
100
AcDbCircle
 10
81.99999926020291
 20
15.41006496946774
 30
0.0
 40
0.5
100
AcDbArc
 50
0.0
 51
59.99999999999997
  0
LINE
  5
8F2
330
164
100
AcDbEntity
  8
0
100
AcDbLine
 10
78.99929510468672
 20
18.00854772519788
 30
0.0
 11
78.99929510468672
 21
21.99145149385265
 31
0.0
  0
ARC
  5
8F3
330
164
100
AcDbEntity
  8
0
100
AcDbCircle
 10
79.49929510468672
 20
18.00854772519788
 30
0.0
 40
0.5
100
AcDbArc
 50
180.0
 51
239.9999999999999
  0
LINE
  5
8F4
330
164
100
AcDbEntity
  8
0
100
AcDbLine
 10
79.24929510468672
 20
22.42446419574486
 30
0.0
 11
82.24999926020291
 21
24.15692154769057
 31
0.0
  0
ARC
  5
8F5
330
164
100
AcDbEntity
  8
0
100
AcDbCircle
 10
79.49929510468672
 20
21.99145149385265
 30
0.0
 40
0.5
100
AcDbArc
 50
120.0
 51
180.0
  0
LINE
  5
8F6
330
164
100
AcDbEntity
  8
0
100
AcDbLine
 10
82.49999926020292
 20
-1.98282198212091
 30
0.0
 11
82.49999926020292
 21
15.41006496946774
 31
0.0
  0
LINE
  5
8F7
330
164
100
AcDbEntity
  8
0
100
AcDbLine
 10
82.49999926020292
 20
24.5899342495828
 30
0.0
 11
82.49999926020292
 21
41.98282120117148
 31
0.0
  0
ARC
  5
8F8
330
164
100
AcDbEntity
  8
0
100
AcDbCircle
 10
102.9999992602029
 20
24.5899342495828
 30
0.0
 40
0.5
100
AcDbArc
 50
300.0
 51
0.0
  0
LINE
  5
8F9
330
164
100
AcDbEntity
  8
0
100
AcDbLine
 10
103.2499992602029
 20
15.84307767135995
 30
0.0
 11
100.2492951046867
 21
17.57553502330567
 31
0.0
  0
ARC
  5
8FA
330
164
100
AcDbEntity
  8
0
100
AcDbCircle
 10
102.9999992602029
 20
15.41006496946774
 30
0.0
 40
0.5
100
AcDbArc
 50
0.0
 51
59.99999999999997
  0
LINE
  5
8FB
330
164
100
AcDbEntity
  8
0
100
AcDbLine
 10
99.99929510468669
 20
18.00854772519788
 30
0.0
 11
99.99929510468669
 21
21.99145149385265
 31
0.0
  0
ARC
  5
8FC
330
164
100
AcDbEntity
  8
0
100
AcDbCircle
 10
100.4992951046867
 20
18.00854772519788
 30
0.0
 40
0.5
100
AcDbArc
 50
180.0
 51
239.9999999999999
  0
LINE
  5
8FD
330
164
100
AcDbEntity
  8
0
100
AcDbLine
 10
100.2492951046867
 20
22.42446419574486
 30
0.0
 11
103.2499992602029
 21
24.15692154769057
 31
0.0
  0
ARC
  5
8FE
330
164
100
AcDbEntity
  8
0
100
AcDbCircle
 10
100.4992951046867
 20
21.99145149385265
 30
0.0
 40
0.5
100
AcDbArc
 50
120.0
 51
180.0
  0
LINE
  5
8FF
330
164
100
AcDbEntity
  8
0
100
AcDbLine
 10
103.4999992602029
 20
-1.98282198212091
 30
0.0
 11
103.4999992602029
 21
15.41006496946774
 31
0.0
  0
LINE
  5
900
330
164
100
AcDbEntity
  8
0
100
AcDbLine
 10
103.4999992602029
 20
24.5899342495828
 30
0.0
 11
103.4999992602029
 21
41.98282120117148
 31
0.0
  0
ARC
  5
901
330
164
100
AcDbEntity
  8
0
100
AcDbCircle
 10
123.9999992602028
 20
24.5899342495828
 30
0.0
 40
0.5
100
AcDbArc
 50
300.0
 51
0.0
  0
LINE
  5
902
330
164
100
AcDbEntity
  8
0
100
AcDbLine
 10
124.2499992602028
 20
15.84307767135995
 30
0.0
 11
121.2492951046866
 21
17.57553502330567
 31
0.0
  0
ARC
  5
903
330
164
100
AcDbEntity
  8
0
100
AcDbCircle
 10
123.9999992602028
 20
15.41006496946774
 30
0.0
 40
0.5
100
AcDbArc
 50
0.0
 51
59.99999999999997
  0
LINE
  5
904
330
164
100
AcDbEntity
  8
0
100
AcDbLine
 10
120.9992951046866
 20
18.00854772519788
 30
0.0
 11
120.9992951046866
 21
21.99145149385265
 31
0.0
  0
ARC
  5
905
330
164
100
AcDbEntity
  8
0
100
AcDbCircle
 10
121.4992951046866
 20
18.00854772519788
 30
0.0
 40
0.5
100
AcDbArc
 50
180.0
 51
239.9999999999999
  0
LINE
  5
906
330
164
100
AcDbEntity
  8
0
100
AcDbLine
 10
121.2492951046866
 20
22.42446419574486
 30
0.0
 11
124.2499992602028
 21
24.15692154769057
 31
0.0
  0
ARC
  5
907
330
164
100
AcDbEntity
  8
0
100
AcDbCircle
 10
121.4992951046866
 20
21.99145149385265
 30
0.0
 40
0.5
100
AcDbArc
 50
120.0
 51
180.0
  0
LINE
  5
908
330
164
100
AcDbEntity
  8
0
100
AcDbLine
 10
124.4999992602028
 20
-1.98282198212091
 30
0.0
 11
124.4999992602028
 21
15.41006496946774
 31
0.0
  0
LINE
  5
909
330
164
100
AcDbEntity
  8
0
100
AcDbLine
 10
124.4999992602028
 20
24.5899342495828
 30
0.0
 11
124.4999992602028
 21
41.98282120117148
 31
0.0
  0
ARC
  5
90A
330
164
100
AcDbEntity
  8
0
100
AcDbCircle
 10
144.9999992602028
 20
24.5899342495828
 30
0.0
 40
0.5
100
AcDbArc
 50
300.0
 51
0.0
  0
LINE
  5
90B
330
164
100
AcDbEntity
  8
0
100
AcDbLine
 10
145.2499992602028
 20
15.84307767135995
 30
0.0
 11
142.2492951046866
 21
17.57553502330567
 31
0.0
  0
ARC
  5
90C
330
164
100
AcDbEntity
  8
0
100
AcDbCircle
 10
144.9999992602028
 20
15.41006496946774
 30
0.0
 40
0.5
100
AcDbArc
 50
0.0
 51
59.99999999999997
  0
LINE
  5
90D
330
164
100
AcDbEntity
  8
0
100
AcDbLine
 10
141.9992951046866
 20
18.00854772519788
 30
0.0
 11
141.9992951046866
 21
21.99145149385265
 31
0.0
  0
ARC
  5
90E
330
164
100
AcDbEntity
  8
0
100
AcDbCircle
 10
142.4992951046866
 20
18.00854772519788
 30
0.0
 40
0.5
100
AcDbArc
 50
180.0
 51
239.9999999999999
  0
LINE
  5
90F
330
164
100
AcDbEntity
  8
0
100
AcDbLine
 10
142.2492951046866
 20
22.42446419574486
 30
0.0
 11
145.2499992602028
 21
24.15692154769057
 31
0.0
  0
ARC
  5
910
330
164
100
AcDbEntity
  8
0
100
AcDbCircle
 10
142.4992951046866
 20
21.99145149385265
 30
0.0
 40
0.5
100
AcDbArc
 50
120.0
 51
180.0
  0
LINE
  5
911
330
164
100
AcDbEntity
  8
0
100
AcDbLine
 10
145.4999992602028
 20
-1.98282198212091
 30
0.0
 11
145.4999992602028
 21
15.41006496946774
 31
0.0
  0
LINE
  5
912
330
164
100
AcDbEntity
  8
0
100
AcDbLine
 10
145.4999992602028
 20
24.5899342495828
 30
0.0
 11
145.4999992602028
 21
41.98282120117148
 31
0.0
  0
ARC
  5
913
330
164
100
AcDbEntity
  8
0
100
AcDbCircle
 10
165.9999992602029
 20
24.5899342495828
 30
0.0
 40
0.5
100
AcDbArc
 50
300.0
 51
0.0
  0
LINE
  5
914
330
164
100
AcDbEntity
  8
0
100
AcDbLine
 10
166.2499992602029
 20
15.84307767135995
 30
0.0
 11
163.2492951046866
 21
17.57553502330567
 31
0.0
  0
ARC
  5
915
330
164
100
AcDbEntity
  8
0
100
AcDbCircle
 10
165.9999992602029
 20
15.41006496946774
 30
0.0
 40
0.5
100
AcDbArc
 50
0.0
 51
59.99999999999997
  0
LINE
  5
916
330
164
100
AcDbEntity
  8
0
100
AcDbLine
 10
162.9992951046866
 20
18.00854772519788
 30
0.0
 11
162.9992951046866
 21
21.99145149385265
 31
0.0
  0
ARC
  5
917
330
164
100
AcDbEntity
  8
0
100
AcDbCircle
 10
163.4992951046866
 20
18.00854772519788
 30
0.0
 40
0.5
100
AcDbArc
 50
180.0
 51
239.9999999999999
  0
LINE
  5
918
330
164
100
AcDbEntity
  8
0
100
AcDbLine
 10
163.2492951046866
 20
22.42446419574486
 30
0.0
 11
166.2499992602029
 21
24.15692154769057
 31
0.0
  0
ARC
  5
919
330
164
100
AcDbEntity
  8
0
100
AcDbCircle
 10
163.4992951046866
 20
21.99145149385265
 30
0.0
 40
0.5
100
AcDbArc
 50
120.0
 51
180.0
  0
LINE
  5
91A
330
164
100
AcDbEntity
  8
0
100
AcDbLine
 10
166.4999992602029
 20
-1.98282198212091
 30
0.0
 11
166.4999992602029
 21
15.41006496946774
 31
0.0
  0
LINE
  5
91B
330
164
100
AcDbEntity
  8
0
100
AcDbLine
 10
166.4999992602029
 20
24.5899342495828
 30
0.0
 11
166.4999992602029
 21
41.98282120117148
 31
0.0
  0
LINE
  5
958
330
164
100
AcDbEntity
  8
0
100
AcDbLine
 10
213.0750771415984
 20
-1.49737400205629
 30
0.0
 11
213.0750771415984
 21
14.02394793486128
 31
0.0
  0
LINE
  5
959
330
164
100
AcDbEntity
  8
0
100
AcDbLine
 10
212.8250771415984
 20
14.45696063675349
 30
0.0
 11
207.1646942343504
 21
17.72498423196947
 31
0.0
  0
LINE
  5
95A
330
164
100
AcDbEntity
  8
0
100
AcDbLine
 10
206.9146942343504
 20
18.15799693386169
 30
0.0
 11
206.9146942343504
 21
24.81440339441259
 31
0.0
  0
LINE
  5
95B
330
164
100
AcDbEntity
  8
0
100
AcDbLine
 10
207.1646942343505
 20
25.2474160963048
 30
0.0
 11
212.8250771415984
 21
28.51543969152075
 31
0.0
  0
LINE
  5
95C
330
164
100
AcDbEntity
  8
0
100
AcDbLine
 10
213.0750771415984
 20
28.94845239341298
 30
0.0
 11
213.0750771415984
 21
44.46977433033054
 31
0.0
  0
ARC
  5
95D
330
164
100
AcDbEntity
  8
0
100
AcDbCircle
 10
212.5750771415984
 20
28.94845239341298
 30
0.0
 40
0.5
100
AcDbArc
 50
299.9999999999999
 51
0.0000000000001018
  0
ARC
  5
95E
330
164
100
AcDbEntity
  8
0
100
AcDbCircle
 10
207.4146942343505
 20
24.81440339441258
 30
0.0
 40
0.5
100
AcDbArc
 50
119.9999999999998
 51
179.9999999999998
  0
ARC
  5
95F
330
164
100
AcDbEntity
  8
0
100
AcDbCircle
 10
207.4146942343504
 20
18.15799693386169
 30
0.0
 40
0.5
100
AcDbArc
 50
179.9999999999998
 51
239.9999999999999
  0
ARC
  5
960
330
164
100
AcDbEntity
  8
0
100
AcDbCircle
 10
212.5750771415984
 20
14.02394793486128
 30
0.0
 40
0.5
100
AcDbArc
 50
0.0
 51
59.99999999999992
  0
LINE
  5
965
330
164
100
AcDbEntity
  8
0
100
AcDbLine
 10
190.3250771415984
 20
-1.49737400205629
 30
0.0
 11
190.3250771415984
 21
14.02394793486128
 31
0.0
  0
ARC
  5
966
330
164
100
AcDbEntity
  8
0
100
AcDbCircle
 10
189.8250771415984
 20
14.02394793486128
 30
0.0
 40
0.5
100
AcDbArc
 50
0.0
 51
59.99999999999999
  0
LINE
  5
967
330
164
100
AcDbEntity
  8
0
100
AcDbLine
 10
190.0750771415984
 20
14.45696063675349
 30
0.0
 11
184.4146942343504
 21
17.72498423196947
 31
0.0
  0
LINE
  5
968
330
164
100
AcDbEntity
  8
0
100
AcDbLine
 10
184.1646942343504
 20
18.15799693386169
 30
0.0
 11
184.1646942343504
 21
24.81440339441259
 31
0.0
  0
ARC
  5
969
330
164
100
AcDbEntity
  8
0
100
AcDbCircle
 10
184.6646942343504
 20
18.15799693386169
 30
0.0
 40
0.5
100
AcDbArc
 50
179.9999999999998
 51
239.9999999999999
  0
ARC
  5
96A
330
164
100
AcDbEntity
  8
0
100
AcDbCircle
 10
184.6646942343504
 20
24.81440339441258
 30
0.0
 40
0.5
100
AcDbArc
 50
119.9999999999998
 51
179.9999999999998
  0
LINE
  5
96B
330
164
100
AcDbEntity
  8
0
100
AcDbLine
 10
184.4146942343504
 20
25.2474160963048
 30
0.0
 11
190.0750771415984
 21
28.51543969152075
 31
0.0
  0
ARC
  5
96C
330
164
100
AcDbEntity
  8
0
100
AcDbCircle
 10
189.8250771415984
 20
28.94845239341298
 30
0.0
 40
0.5
100
AcDbArc
 50
299.9999999999998
 51
0.0000000000001018
  0
LINE
  5
96D
330
164
100
AcDbEntity
  8
0
100
AcDbLine
 10
190.3250771415984
 20
28.94845239341298
 30
0.0
 11
190.3250771415984
 21
44.46977433033054
 31
0.0
  0
LINE
  5
989
330
164
100
AcDbEntity
  8
0
100
AcDbLine
 10
193.1337181060746
 20
83.11191079090511
 30
0.0
 11
193.1337181060746
 21
67.59058885398752
 31
0.0
  0
ARC
  5
98A
330
164
100
AcDbEntity
  8
0
100
AcDbCircle
 10
193.6337181060746
 20
67.59058885398752
 30
0.0
 40
0.5
100
AcDbArc
 50
180.0
 51
239.9999999999999
  0
LINE
  5
98B
330
164
100
AcDbEntity
  8
0
100
AcDbLine
 10
193.3837181060746
 20
67.15757615209532
 30
0.0
 11
199.0441010133226
 21
63.88955255687934
 31
0.0
  0
LINE
  5
98C
330
164
100
AcDbEntity
  8
0
100
AcDbLine
 10
199.2941010133226
 20
63.45653985498711
 30
0.0
 11
199.2941010133226
 21
56.80013339443622
 31
0.0
  0
ARC
  5
98D
330
164
100
AcDbEntity
  8
0
100
AcDbCircle
 10
198.7941010133226
 20
63.45653985498712
 30
0.0
 40
0.5
100
AcDbArc
 50
359.9999999999992
 51
59.99999999999997
  0
ARC
  5
98E
330
164
100
AcDbEntity
  8
0
100
AcDbCircle
 10
198.7941010133226
 20
56.80013339443623
 30
0.0
 40
0.5
100
AcDbArc
 50
300.0
 51
359.9999999999992
  0
LINE
  5
98F
330
164
100
AcDbEntity
  8
0
100
AcDbLine
 10
199.0441010133226
 20
56.367120692544
 30
0.0
 11
193.3837181060746
 21
53.09909709732806
 31
0.0
  0
ARC
  5
990
330
164
100
AcDbEntity
  8
0
100
AcDbCircle
 10
193.6337181060746
 20
52.66608439543583
 30
0.0
 40
0.5
100
AcDbArc
 50
120.0
 51
180.0
  0
LINE
  5
991
330
164
100
AcDbEntity
  8
0
100
AcDbLine
 10
193.1337181060746
 20
52.66608439543583
 30
0.0
 11
193.1337181060746
 21
37.14476245851827
 31
0.0
  0
LINE
  5
992
330
164
100
AcDbEntity
  8
0
100
AcDbLine
 10
170.3837181060747
 20
83.11191079090511
 30
0.0
 11
170.3837181060747
 21
67.59058885398752
 31
0.0
  0
ARC
  5
993
330
164
100
AcDbEntity
  8
0
100
AcDbCircle
 10
170.8837181060747
 20
67.59058885398752
 30
0.0
 40
0.5
100
AcDbArc
 50
180.0
 51
239.9999999999999
  0
LINE
  5
994
330
164
100
AcDbEntity
  8
0
100
AcDbLine
 10
170.6337181060747
 20
67.15757615209532
 30
0.0
 11
176.2941010133226
 21
63.88955255687934
 31
0.0
  0
LINE
  5
995
330
164
100
AcDbEntity
  8
0
100
AcDbLine
 10
176.5441010133226
 20
63.45653985498711
 30
0.0
 11
176.5441010133226
 21
56.80013339443622
 31
0.0
  0
ARC
  5
996
330
164
100
AcDbEntity
  8
0
100
AcDbCircle
 10
176.0441010133226
 20
63.45653985498712
 30
0.0
 40
0.5
100
AcDbArc
 50
359.9999999999992
 51
59.99999999999997
  0
ARC
  5
997
330
164
100
AcDbEntity
  8
0
100
AcDbCircle
 10
176.0441010133226
 20
56.80013339443623
 30
0.0
 40
0.5
100
AcDbArc
 50
300.0
 51
359.9999999999992
  0
LINE
  5
998
330
164
100
AcDbEntity
  8
0
100
AcDbLine
 10
176.2941010133226
 20
56.367120692544
 30
0.0
 11
170.6337181060747
 21
53.09909709732806
 31
0.0
  0
ARC
  5
999
330
164
100
AcDbEntity
  8
0
100
AcDbCircle
 10
170.8837181060747
 20
52.66608439543583
 30
0.0
 40
0.5
100
AcDbArc
 50
120.0
 51
180.0
  0
LINE
  5
99A
330
164
100
AcDbEntity
  8
0
100
AcDbLine
 10
170.3837181060747
 20
52.66608439543583
 30
0.0
 11
170.3837181060747
 21
37.14476245851827
 31
0.0
  0
ENDSEC
  0
SECTION
  2
OBJECTS
  0
DICTIONARY
  5
101
330
0
100
AcDbDictionary
281
     1
  3
ACAD_CIP_PREVIOUS_PRODUCT_INFO
350
172
  3
ACAD_COLOR
350
157
  3
ACAD_DETAILVIEWSTYLE
350
15E
  3
ACAD_GROUP
350
102
  3
ACAD_LAYOUT
350
156
  3
ACAD_MATERIAL
350
105
  3
ACAD_MLEADERSTYLE
350
15A
  3
ACAD_MLINESTYLE
350
153
  3
ACAD_PLOTSETTINGS
350
155
  3
ACAD_PLOTSTYLENAME
350
103
  3
ACAD_SCALELIST
350
137
  3
ACAD_SECTIONVIEWSTYLE
350
15C
  3
ACAD_TABLESTYLE
350
158
  3
ACAD_VISUALSTYLE
350
11E
  3
ACDB_RECOMPOSE_DATA
350
99E
  3
AcDbVariableDictionary
350
288
  0
DICTIONARY
  5
812
330
149
100
AcDbDictionary
280
     1
281
     1
  3
ADSK_XREC_LAYER_RECONCILED
360
813
  0
DICTIONARY
  5
17D
330
164
100
AcDbDictionary
280
     1
281
     1
  3
ACAD_SORTENTS
360
17E
  0
XRECORD
  5
172
102
{ACAD_REACTORS
330
101
102
}
330
101
100
AcDbXrecord
280
     1
300
ACD
300
2017
300

  0
DICTIONARY
  5
157
102
{ACAD_REACTORS
330
101
102
}
330
101
100
AcDbDictionary
281
     1
  0
DICTIONARY
  5
15E
102
{ACAD_REACTORS
330
101
102
}
330
101
100
AcDbDictionary
281
     1
  3
Imperial24
350
15F
  0
DICTIONARY
  5
102
102
{ACAD_REACTORS
330
101
102
}
330
101
100
AcDbDictionary
281
     1
  0
DICTIONARY
  5
156
102
{ACAD_REACTORS
330
101
102
}
330
101
100
AcDbDictionary
281
     1
  3
Layout1
350
163
  3
Model
350
167
  0
DICTIONARY
  5
105
102
{ACAD_REACTORS
330
101
102
}
330
101
100
AcDbDictionary
281
     1
  3
ByBlock
350
10E
  3
ByLayer
350
106
  3
Global
350
116
  0
DICTIONARY
  5
15A
102
{ACAD_REACTORS
330
101
102
}
330
101
100
AcDbDictionary
281
     1
  3
Standard
350
15B
  0
DICTIONARY
  5
153
102
{ACAD_REACTORS
330
101
102
}
330
101
100
AcDbDictionary
281
     1
  3
Standard
350
154
  0
DICTIONARY
  5
155
102
{ACAD_REACTORS
330
101
102
}
330
101
100
AcDbDictionary
281
     1
  0
ACDBDICTIONARYWDFLT
  5
103
102
{ACAD_REACTORS
330
101
102
}
330
101
100
AcDbDictionary
281
     1
  3
Normal
350
104
100
AcDbDictionaryWithDefault
340
104
  0
DICTIONARY
  5
137
102
{ACAD_REACTORS
330
101
102
}
330
101
100
AcDbDictionary
281
     1
  3
A0
350
138
  3
A1
350
139
  3
A2
350
13A
  3
A3
350
13B
  3
A4
350
13C
  3
A5
350
13D
  3
A6
350
13E
  3
A7
350
13F
  3
A8
350
140
  3
A9
350
141
  3
B0
350
142
  3
B1
350
143
  3
B2
350
144
  3
B3
350
145
  3
B4
350
146
  3
B5
350
147
  3
B6
350
148
  0
DICTIONARY
  5
15C
102
{ACAD_REACTORS
330
101
102
}
330
101
100
AcDbDictionary
281
     1
  3
Imperial24
350
15D
  0
DICTIONARY
  5
158
102
{ACAD_REACTORS
330
101
102
}
330
101
100
AcDbDictionary
281
     1
  3
Standard
350
159
  0
DICTIONARY
  5
11E
102
{ACAD_REACTORS
330
101
102
}
330
101
100
AcDbDictionary
281
     1
  3
2dWireframe
350
124
  3
Basic
350
123
  3
Brighten
350
12A
  3
ColorChange
350
12E
  3
Conceptual
350
127
  3
Dim
350
129
  3
EdgeColorOff
350
136
  3
Facepattern
350
12D
  3
Flat
350
11F
  3
FlatWithEdges
350
120
  3
Gouraud
350
121
  3
GouraudWithEdges
350
122
  3
Hidden
350
126
  3
JitterOff
350
134
  3
Linepattern
350
12C
  3
OverhangOff
350
135
  3
Realistic
350
128
  3
Shaded
350
133
  3
Shaded with edges
350
132
  3
Shades of Gray
350
12F
  3
Sketchy
350
130
  3
Thicken
350
12B
  3
Wireframe
350
125
  3
X-Ray
350
131
  0
XRECORD
  5
99E
102
{ACAD_REACTORS
330
101
102
}
330
101
100
AcDbXrecord
280
     1
 90
        1
330
159
330
15D
330
15F
  0
DICTIONARY
  5
288
102
{ACAD_REACTORS
330
101
102
}
330
101
100
AcDbDictionary
281
     1
  3
CANNOSCALE
350
819
  3
CMLEADERSTYLE
350
815
  3
CTABLESTYLE
350
814
  3
CVIEWDETAILSTYLE
350
816
  3
CVIEWSECTIONSTYLE
350
817
  3
LAYEREVAL
350
81B
  3
LAYERNOTIFY
350
81C
  3
LIGHTINGUNITS
350
81A
  3
MSLTSCALE
350
818
  0
XRECORD
  5
813
102
{ACAD_REACTORS
330
812
102
}
330
812
100
AcDbXrecord
280
     1
290
     1
  0
SORTENTSTABLE
  5
17E
102
{ACAD_REACTORS
330
17D
102
}
330
17D
100
AcDbSortentsTable
330
164
331
8F0
  5
8F0
331
907
  5
907
331
8E5
  5
8E5
331
8EC
  5
8EC
331
8EB
  5
8EB
331
8FF
  5
8FF
331
8DD
  5
8DD
331
898
  5
898
331
7D8
  5
7D9
331
780
  5
781
331
5C8
  5
5C8
331
570
  5
570
331
518
  5
518
331
849
  5
849
331
5B9
  5
5B9
331
83A
  5
83A
331
642
  5
643
331
4DB
  5
4DB
331
86B
  5
86B
331
79B
  5
79C
331
633
  5
633
331
5DB
  5
5DB
331
583
  5
583
331
4DC
  5
4DC
331
533
  5
533
331
1A1
  5
1B8
331
86C
  5
86C
331
79C
  5
79D
331
634
  5
634
331
5DC
  5
5DC
331
584
  5
584
331
85D
  5
85D
331
7CD
  5
7CE
331
4FE
  5
4FE
331
60D
  5
60D
331
7BE
  5
7BF
331
5FE
  5
5FE
331
556
  5
556
331
24E
  5
1BB
331
534
  5
534
331
82F
  5
830
331
797
  5
798
331
59F
  5
59F
331
547
  5
547
331
850
  5
850
331
618
  5
618
331
5C0
  5
5C0
331
568
  5
568
331
510
  5
510
331
4C0
  5
4C0
331
841
  5
841
331
7B1
  5
7B2
331
872
  5
872
331
7A2
  5
7A3
331
5E2
  5
5E2
331
58A
  5
58A
331
53A
  5
53A
331
4E2
  5
4E2
331
863
  5
863
331
7D3
  5
7D4
331
77B
  5
77C
331
864
  5
864
331
7D4
  5
7D5
331
836
  5
836
331
5A6
  5
5A6
331
4F6
  5
4F6
331
52C
  5
52C
331
52B
  5
52B
331
5F1
  5
5F1
331
62F
  5
62F
331
5D7
  5
5D7
331
57F
  5
57F
331
97
  5
17F
331
959
  5
95A
331
960
  5
959
331
915
  5
915
331
90E
  5
90E
331
905
  5
905
331
8F6
  5
8F6
331
8E2
  5
8E2
331
8FD
  5
8FD
331
8E9
  5
8E9
331
897
  5
897
331
838
  5
642
331
590
  5
590
331
869
  5
869
331
799
  5
79A
331
631
  5
631
331
581
  5
581
331
4D9
  5
4D9
331
4CA
  5
4CA
331
85A
  5
85A
331
7CA
  5
7CB
331
60A
  5
60A
331
7BB
  5
7BC
331
5FB
  5
5FB
331
5AB
  5
5AB
331
553
  5
553
331
7BC
  5
7BD
331
5FC
  5
5FC
331
5AC
  5
5AC
331
554
  5
554
331
4FC
  5
4FC
331
4FB
  5
4FB
331
795
  5
796
331
786
  5
787
331
626
  5
626
331
51E
  5
51E
331
59D
  5
59D
331
50F
  5
50F
331
4BF
  5
4BF
331
1B2
  5
9A
331
84F
  5
84F
331
617
  5
617
331
5BF
  5
5BF
331
870
  5
870
331
7A0
  5
7A1
331
638
  5
638
331
5E0
  5
5E0
331
588
  5
588
331
538
  5
538
331
4E0
  5
4E0
331
861
  5
861
331
7D1
  5
7D2
331
76A
  5
76B
331
502
  5
502
331
5A3
  5
5A3
331
54B
  5
54B
331
5A4
  5
5A4
331
5D5
  5
5D5
331
54C
  5
54C
331
4F4
  5
4F4
331
4F3
  5
4F3
331
779
  5
77A
331
856
  5
856
331
5C6
  5
5C6
331
56E
  5
56E
331
4C6
  5
4C6
331
847
  5
847
331
7B7
  5
7B8
331
64F
  5
650
331
5F7
  5
5F7
331
19F
  5
1B1
331
567
  5
567
331
91A
  5
91A
331
95F
  5
95C
331
912
  5
912
331
90C
  5
90C
331
90B
  5
90B
331
902
  5
902
331
8F4
  5
8F4
331
8F3
  5
8F3
331
8E0
  5
8E0
331
8FA
  5
8FA
331
8EF
  5
8EF
331
89C
  5
89C
331
89B
  5
89B
331
895
  5
895
331
858
  5
858
331
520
  5
520
331
7B9
  5
7BA
331
651
  5
76A
331
5F9
  5
5F9
331
5A9
  5
5A9
331
551
  5
551
331
87A
  5
87A
331
792
  5
793
331
783
  5
784
331
573
  5
573
331
784
  5
785
331
574
  5
574
331
51C
  5
51C
331
51B
  5
51B
331
59A
  5
59A
331
4C8
  5
4C8
331
84D
  5
84D
331
615
  5
615
331
5BD
  5
5BD
331
565
  5
565
331
4BD
  5
4BD
331
4AE
  5
4AE
331
83E
  5
83E
331
7AE
  5
7AF
331
646
  5
647
331
86F
  5
86F
331
79F
  5
7A0
331
637
  5
637
331
5DF
  5
5DF
331
587
  5
587
331
537
  5
537
331
7C0
  5
7C1
331
600
  5
600
331
558
  5
558
331
500
  5
500
331
831
  5
837
331
62A
  5
62A
331
5D2
  5
5D2
331
549
  5
549
331
4DF
  5
4DF
331
513
  5
513
331
4C3
  5
4C3
331
853
  5
853
331
61B
  5
61B
331
5C3
  5
5C3
331
854
  5
854
331
61C
  5
61C
331
5C4
  5
5C4
331
56C
  5
56C
331
514
  5
514
331
4C4
  5
4C4
331
845
  5
845
331
7B5
  5
7B6
331
876
  5
876
331
58E
  5
58E
331
4E6
  5
4E6
331
867
  5
867
331
7D7
  5
7D8
331
77F
  5
780
331
52F
  5
52F
331
4D7
  5
4D7
331
64D
  5
64E
331
56B
  5
56B
331
5EE
  5
5EE
331
918
  5
918
331
95D
  5
95F
331
910
  5
910
331
909
  5
909
331
900
  5
900
331
8F1
  5
8F1
331
8F8
  5
8F8
331
8E6
  5
8E6
331
8ED
  5
8ED
331
8DE
  5
8DE
331
899
  5
899
331
878
  5
878
331
7D9
  5
82F
331
781
  5
782
331
571
  5
571
331
519
  5
519
331
4E8
  5
4E8
331
84A
  5
84A
331
5BA
  5
5BA
331
83B
  5
83B
331
83C
  5
83C
331
644
  5
645
331
643
  5
644
331
562
  5
562
331
4BA
  5
4BA
331
86D
  5
86D
331
79D
  5
79E
331
635
  5
635
331
5DD
  5
5DD
331
85E
  5
85E
331
7CE
  5
7CF
331
776
  5
777
331
7BF
  5
7C0
331
5FF
  5
5FF
331
788
  5
789
331
628
  5
628
331
557
  5
557
331
4FF
  5
4FF
331
60E
  5
60E
331
851
  5
851
331
619
  5
619
331
5C1
  5
5C1
331
511
  5
511
331
842
  5
842
331
7B2
  5
7B3
331
873
  5
873
331
7A3
  5
7A4
331
5E3
  5
5E3
331
58B
  5
58B
331
53B
  5
53B
331
4E4
  5
4E4
331
4E3
  5
4E3
331
5F2
  5
5F2
331
874
  5
874
331
7A4
  5
7A5
331
5E4
  5
5E4
331
58C
  5
58C
331
53C
  5
53C
331
865
  5
865
331
7D5
  5
7D6
331
77D
  5
77E
331
5B6
  5
5B6
331
4F7
  5
4F7
331
52D
  5
52D
331
837
  5
838
331
5A7
  5
5A7
331
54F
  5
54F
331
247
  5
1FC
331
22C
  5
1FD
331
535
  5
535
331
95A
  5
95B
331
916
  5
916
331
90F
  5
90F
331
906
  5
906
331
8F7
  5
8F7
331
8FE
  5
8FE
331
8EA
  5
8EA
331
8E4
  5
8E4
331
8E3
  5
8E3
331
848
  5
848
331
610
  5
610
331
5B8
  5
5B8
331
4DA
  5
4DA
331
86A
  5
86A
331
632
  5
632
331
85B
  5
85B
331
7CB
  5
7CC
331
60B
  5
60B
331
85C
  5
85C
331
7CC
  5
7CD
331
60C
  5
60C
331
4FD
  5
4FD
331
4CC
  5
4CC
331
4CB
  5
4CB
331
582
  5
582
331
7BD
  5
7BE
331
5FD
  5
5FD
331
555
  5
555
331
796
  5
797
331
59E
  5
59E
331
787
  5
788
331
627
  5
627
331
51F
  5
51F
331
546
  5
546
331
4B0
  5
4B0
331
840
  5
840
331
7B0
  5
7B1
331
648
  5
649
331
871
  5
871
331
7A1
  5
7A2
331
5E1
  5
5E1
331
589
  5
589
331
539
  5
539
331
4E1
  5
4E1
331
5F0
  5
5F0
331
24D
  5
1F0
331
1A0
  5
1B2
331
862
  5
862
331
77A
  5
77B
331
52A
  5
52A
331
76B
  5
76C
331
76C
  5
76D
331
504
  5
504
331
503
  5
503
331
835
  5
831
331
5A5
  5
5A5
331
5D6
  5
5D6
331
57E
  5
57E
331
4F5
  5
4F5
331
857
  5
857
331
5C7
  5
5C7
331
56F
  5
56F
331
517
  5
517
331
4C7
  5
4C7
331
1BA
  5
1FB
331
958
  5
958
331
91B
  5
91B
331
914
  5
914
331
913
  5
913
331
90D
  5
90D
331
904
  5
904
331
903
  5
903
331
8F5
  5
8F5
331
8E1
  5
8E1
331
8FC
  5
8FC
331
8FB
  5
8FB
331
8E8
  5
8E8
331
89D
  5
89D
331
896
  5
896
331
868
  5
868
331
630
  5
630
331
5D8
  5
5D8
331
580
  5
580
331
530
  5
530
331
4D8
  5
4D8
331
859
  5
859
331
7BA
  5
7BB
331
5FA
  5
5FA
331
5AA
  5
5AA
331
552
  5
552
331
4C9
  5
4C9
331
793
  5
794
331
59B
  5
59B
331
794
  5
795
331
785
  5
786
331
51D
  5
51D
331
59C
  5
59C
331
84E
  5
84E
331
616
  5
616
331
566
  5
566
331
50E
  5
50E
331
4BE
  5
4BE
331
4AF
  5
4AF
331
233
  5
1E4
331
83F
  5
83F
331
7AF
  5
7B0
331
647
  5
648
331
860
  5
860
331
778
  5
779
331
501
  5
501
331
62B
  5
62B
331
62C
  5
62C
331
5D4
  5
5D4
331
5D3
  5
5D3
331
54A
  5
54A
331
4F2
  5
4F2
331
855
  5
855
331
5C5
  5
5C5
331
56D
  5
56D
331
4C5
  5
4C5
331
846
  5
846
331
4E7
  5
4E7
331
64E
  5
64F
331
1B8
  5
1EE
331
877
  5
877
331
58F
  5
58F
331
22F
  5
1F3
331
5EF
  5
5EF
331
919
  5
919
331
95E
  5
95D
331
911
  5
911
331
90A
  5
90A
331
901
  5
901
331
8F2
  5
8F2
331
8F9
  5
8F9
331
8E7
  5
8E7
331
8EE
  5
8EE
331
8DF
  5
8DF
331
89A
  5
89A
331
4F8
  5
4F8
331
7B8
  5
7B9
331
650
  5
651
331
5F8
  5
5F8
331
5A8
  5
5A8
331
550
  5
550
331
879
  5
879
331
782
  5
783
331
572
  5
572
331
51A
  5
51A
331
84B
  5
84B
331
613
  5
613
331
5BB
  5
5BB
331
563
  5
563
331
84C
  5
84C
331
614
  5
614
331
5BC
  5
5BC
331
83D
  5
83D
331
645
  5
646
331
564
  5
564
331
86E
  5
86E
331
79E
  5
79F
331
636
  5
636
331
5DE
  5
5DE
331
536
  5
536
331
85F
  5
85F
331
7CF
  5
7D0
331
777
  5
778
331
60F
  5
60F
331
4BC
  5
4BC
331
4BB
  5
4BB
331
830
  5
835
331
5A0
  5
5A0
331
629
  5
629
331
548
  5
548
331
852
  5
852
331
61A
  5
61A
331
5C2
  5
5C2
331
512
  5
512
331
843
  5
843
331
7B3
  5
7B4
331
64B
  5
64C
331
5F3
  5
5F3
331
98
  5
193
331
231
  5
1CF
331
844
  5
844
331
64C
  5
64D
331
5F4
  5
5F4
331
875
  5
875
331
58D
  5
58D
331
4E5
  5
4E5
331
866
  5
866
331
7D6
  5
7D7
331
52E
  5
52E
331
5B7
  5
5B7
331
4D6
  5
4D6
331
19C
  5
1AC
331
248
  5
1B4
331
95C
  5
960
331
95B
  5
95E
331
917
  5
917
331
908
  5
908
  0
ACDBDETAILVIEWSTYLE
  5
15F
102
{ACAD_XDICTIONARY
360
821
102
}
102
{ACAD_REACTORS
330
15E
102
}
330
15E
100
AcDbModelDocViewStyle
 70
     0
  3
Imperial24
290
     0
100
AcDbDetailViewStyle
 70
     0
 71
     0
 90
        3
 71
     1
340
14A
 62
   256
 40
0.24
340
0
 62
   256
 40
0.24
300

 40
0.36
280
     3
 71
     2
340
151
 90
       25
 62
   256
 71
     3
340
14A
 62
   256
 40
0.24
 90
        1
 40
0.75
 90
        1
300
%<\AcVar ViewType \f "%tc1">% %<\AcVar ViewDetailId>%\PSCALE %<\AcVar ViewScale \f "%sn">%
 71
     4
340
151
 90
       25
 62
   256
340
151
 90
       25
 62
   256
280
     0
  0
LAYOUT
  5
163
102
{ACAD_REACTORS
330
156
102
}
330
156
100
AcDbPlotSettings
  1

  2
Microsoft Print to PDF
  4

  6

 40
0.0
 41
0.0
 42
0.0
 43
0.0
 44
0.0
 45
0.0
 46
0.0
 47
0.0
 48
0.0
 49
0.0
140
0.0
141
0.0
142
1.0
143
1.0
 70
   688
 72
     0
 73
     0
 74
     5
  7

 75
    16
147
1.0
 76
     0
 77
     2
 78
   300
148
0.0
149
0.0
100
AcDbLayout
  1
Layout1
 70
     1
 71
     1
 10
0.0
 20
0.0
 11
420.0
 21
297.0
 12
0.0
 22
0.0
 32
0.0
 14
1.000000000000000E+20
 24
1.000000000000000E+20
 34
1.000000000000000E+20
 15
-1.000000000000000E+20
 25
-1.000000000000000E+20
 35
-1.000000000000000E+20
146
0.0
 13
0.0
 23
0.0
 33
0.0
 16
1.0
 26
0.0
 36
0.0
 17
0.0
 27
1.0
 37
0.0
 76
     0
330
160
  0
LAYOUT
  5
167
102
{ACAD_REACTORS
330
156
102
}
330
156
100
AcDbPlotSettings
  1

  2
Microsoft Print to PDF
  4

  6

 40
0.0
 41
0.0
 42
0.0
 43
0.0
 44
0.0
 45
0.0
 46
0.0
 47
0.0
 48
0.0
 49
0.0
140
0.0
141
0.0
142
1.0
143
1.0
 70
  1712
 72
     0
 73
     0
 74
     0
  7

 75
     0
147
1.0
 76
     0
 77
     2
 78
   300
148
0.0
149
0.0
100
AcDbLayout
  1
Model
 70
     1
 71
     0
 10
0.0
 20
0.0
 11
12.0
 21
9.0
 12
0.0
 22
0.0
 32
0.0
 14
0.0
 24
0.0
 34
0.0
 15
0.0
 25
0.0
 35
0.0
146
0.0
 13
0.0
 23
0.0
 33
0.0
 16
1.0
 26
0.0
 36
0.0
 17
0.0
 27
1.0
 37
0.0
 76
     0
330
164
331
168
  0
MATERIAL
  5
10E
102
{ACAD_XDICTIONARY
360
10F
102
}
102
{ACAD_REACTORS
330
105
102
}
330
105
100
AcDbMaterial
  1
ByBlock
 72
     0
 43
0.0208333333333333
 43
0.0
 43
0.0
 43
0.0
 43
0.0
 43
0.0208333333333333
 43
0.0
 43
0.0
 43
0.0
 43
0.0
 43
1.0
 43
0.0
 43
0.0
 43
0.0
 43
0.0
 43
1.0
 77
     0
 47
0.0208333333333333
 47
0.0
 47
0.0
 47
0.0
 47
0.0
 47
0.0208333333333333
 47
0.0
 47
0.0
 47
0.0
 47
0.0
 47
1.0
 47
0.0
 47
0.0
 47
0.0
 47
0.0
 47
1.0
171
     0
 49
0.0208333333333333
 49
0.0
 49
0.0
 49
0.0
 49
0.0
 49
0.0208333333333333
 49
0.0
 49
0.0
 49
0.0
 49
0.0
 49
1.0
 49
0.0
 49
0.0
 49
0.0
 49
0.0
 49
1.0
175
     0
142
0.0208333333333333
142
0.0
142
0.0
142
0.0
142
0.0
142
0.0208333333333333
142
0.0
142
0.0
142
0.0
142
0.0
142
1.0
142
0.0
142
0.0
142
0.0
142
0.0
142
1.0
179
     0
144
0.0208333333333333
144
0.0
144
0.0
144
0.0
144
0.0
144
0.0208333333333333
144
0.0
144
0.0
144
0.0
144
0.0
144
1.0
144
0.0
144
0.0
144
0.0
144
0.0
144
1.0
147
0.0208333333333333
147
0.0
147
0.0
147
0.0
147
0.0
147
0.0208333333333333
147
0.0
147
0.0
147
0.0
147
0.0
147
1.0
147
0.0
147
0.0
147
0.0
147
0.0
147
1.0
  0
MATERIAL
  5
106
102
{ACAD_XDICTIONARY
360
107
102
}
102
{ACAD_REACTORS
330
105
102
}
330
105
100
AcDbMaterial
  1
ByLayer
 72
     0
 43
0.0208333333333333
 43
0.0
 43
0.0
 43
0.0
 43
0.0
 43
0.0208333333333333
 43
0.0
 43
0.0
 43
0.0
 43
0.0
 43
1.0
 43
0.0
 43
0.0
 43
0.0
 43
0.0
 43
1.0
 77
     0
 47
0.0208333333333333
 47
0.0
 47
0.0
 47
0.0
 47
0.0
 47
0.0208333333333333
 47
0.0
 47
0.0
 47
0.0
 47
0.0
 47
1.0
 47
0.0
 47
0.0
 47
0.0
 47
0.0
 47
1.0
171
     0
 49
0.0208333333333333
 49
0.0
 49
0.0
 49
0.0
 49
0.0
 49
0.0208333333333333
 49
0.0
 49
0.0
 49
0.0
 49
0.0
 49
1.0
 49
0.0
 49
0.0
 49
0.0
 49
0.0
 49
1.0
175
     0
142
0.0208333333333333
142
0.0
142
0.0
142
0.0
142
0.0
142
0.0208333333333333
142
0.0
142
0.0
142
0.0
142
0.0
142
1.0
142
0.0
142
0.0
142
0.0
142
0.0
142
1.0
179
     0
144
0.0208333333333333
144
0.0
144
0.0
144
0.0
144
0.0
144
0.0208333333333333
144
0.0
144
0.0
144
0.0
144
0.0
144
1.0
144
0.0
144
0.0
144
0.0
144
0.0
144
1.0
147
0.0208333333333333
147
0.0
147
0.0
147
0.0
147
0.0
147
0.0208333333333333
147
0.0
147
0.0
147
0.0
147
0.0
147
1.0
147
0.0
147
0.0
147
0.0
147
0.0
147
1.0
  0
MATERIAL
  5
116
102
{ACAD_XDICTIONARY
360
117
102
}
102
{ACAD_REACTORS
330
105
102
}
330
105
100
AcDbMaterial
  1
Global
 72
     0
 43
0.0208333333333333
 43
0.0
 43
0.0
 43
0.0
 43
0.0
 43
0.0208333333333333
 43
0.0
 43
0.0
 43
0.0
 43
0.0
 43
1.0
 43
0.0
 43
0.0
 43
0.0
 43
0.0
 43
1.0
 77
     0
 47
0.0208333333333333
 47
0.0
 47
0.0
 47
0.0
 47
0.0
 47
0.0208333333333333
 47
0.0
 47
0.0
 47
0.0
 47
0.0
 47
1.0
 47
0.0
 47
0.0
 47
0.0
 47
0.0
 47
1.0
171
     0
 49
0.0208333333333333
 49
0.0
 49
0.0
 49
0.0
 49
0.0
 49
0.0208333333333333
 49
0.0
 49
0.0
 49
0.0
 49
0.0
 49
1.0
 49
0.0
 49
0.0
 49
0.0
 49
0.0
 49
1.0
175
     0
142
0.0208333333333333
142
0.0
142
0.0
142
0.0
142
0.0
142
0.0208333333333333
142
0.0
142
0.0
142
0.0
142
0.0
142
1.0
142
0.0
142
0.0
142
0.0
142
0.0
142
1.0
179
     0
144
0.0208333333333333
144
0.0
144
0.0
144
0.0
144
0.0
144
0.0208333333333333
144
0.0
144
0.0
144
0.0
144
0.0
144
1.0
144
0.0
144
0.0
144
0.0
144
0.0
144
1.0
147
0.0208333333333333
147
0.0
147
0.0
147
0.0
147
0.0
147
0.0208333333333333
147
0.0
147
0.0
147
0.0
147
0.0
147
1.0
147
0.0
147
0.0
147
0.0
147
0.0
147
1.0
  0
MLEADERSTYLE
  5
15B
102
{ACAD_REACTORS
330
15A
102
}
330
15A
100
AcDbMLeaderStyle
179
     2
170
     2
171
     1
172
     0
 90
        2
 40
0.0
 41
0.0
173
     1
 91
-1056964608
340
14F
 92
       -2
290
     1
 42
0.09
291
     1
 43
0.36
  3
Standard
 44
0.18
300

342
14A
174
     1
178
     6
175
     1
176
     0
 93
-1056964608
 45
0.18
292
     0
297
     0
 46
0.18
 94
-1056964608
 47
1.0
 49
1.0
140
1.0
293
     1
141
0.0
294
     1
177
     0
142
1.0
295
     0
296
     0
143
0.125
271
     0
272
     9
273
     9
298
     0
  0
MLINESTYLE
  5
154
102
{ACAD_REACTORS
330
153
102
}
330
153
100
AcDbMlineStyle
  2
STANDARD
 70
     0
  3

 62
   256
 51
90.0
 52
90.0
 71
     2
 49
0.5
 62
   256
  6
BYLAYER
 49
-0.5
 62
   256
  6
BYLAYER
  0
ACDBPLACEHOLDER
  5
104
102
{ACAD_REACTORS
330
103
102
}
330
103
  0
SCALE
  5
138
102
{ACAD_REACTORS
330
137
102
}
330
137
100
AcDbScale
 70
     0
300
1:1
140
1.0
141
1.0
290
     1
  0
SCALE
  5
139
102
{ACAD_REACTORS
330
137
102
}
330
137
100
AcDbScale
 70
     0
300
1/128" = 1'-0"
140
0.0078125
141
12.0
290
     0
  0
SCALE
  5
13A
102
{ACAD_REACTORS
330
137
102
}
330
137
100
AcDbScale
 70
     0
300
1/64" = 1'-0"
140
0.015625
141
12.0
290
     0
  0
SCALE
  5
13B
102
{ACAD_REACTORS
330
137
102
}
330
137
100
AcDbScale
 70
     0
300
1/32" = 1'-0"
140
0.03125
141
12.0
290
     0
  0
SCALE
  5
13C
102
{ACAD_REACTORS
330
137
102
}
330
137
100
AcDbScale
 70
     0
300
1/16" = 1'-0"
140
0.0625
141
12.0
290
     0
  0
SCALE
  5
13D
102
{ACAD_REACTORS
330
137
102
}
330
137
100
AcDbScale
 70
     0
300
3/32" = 1'-0"
140
0.09375
141
12.0
290
     0
  0
SCALE
  5
13E
102
{ACAD_REACTORS
330
137
102
}
330
137
100
AcDbScale
 70
     0
300
1/8" = 1'-0"
140
0.125
141
12.0
290
     0
  0
SCALE
  5
13F
102
{ACAD_REACTORS
330
137
102
}
330
137
100
AcDbScale
 70
     0
300
3/16" = 1'-0"
140
0.1875
141
12.0
290
     0
  0
SCALE
  5
140
102
{ACAD_REACTORS
330
137
102
}
330
137
100
AcDbScale
 70
     0
300
1/4" = 1'-0"
140
0.25
141
12.0
290
     0
  0
SCALE
  5
141
102
{ACAD_REACTORS
330
137
102
}
330
137
100
AcDbScale
 70
     0
300
3/8" = 1'-0"
140
0.375
141
12.0
290
     0
  0
SCALE
  5
142
102
{ACAD_REACTORS
330
137
102
}
330
137
100
AcDbScale
 70
     0
300
1/2" = 1'-0"
140
0.5
141
12.0
290
     0
  0
SCALE
  5
143
102
{ACAD_REACTORS
330
137
102
}
330
137
100
AcDbScale
 70
     0
300
3/4" = 1'-0"
140
0.75
141
12.0
290
     0
  0
SCALE
  5
144
102
{ACAD_REACTORS
330
137
102
}
330
137
100
AcDbScale
 70
     0
300
1" = 1'-0"
140
1.0
141
12.0
290
     0
  0
SCALE
  5
145
102
{ACAD_REACTORS
330
137
102
}
330
137
100
AcDbScale
 70
     0
300
1-1/2" = 1'-0"
140
1.5
141
12.0
290
     0
  0
SCALE
  5
146
102
{ACAD_REACTORS
330
137
102
}
330
137
100
AcDbScale
 70
     0
300
3" = 1'-0"
140
3.0
141
12.0
290
     0
  0
SCALE
  5
147
102
{ACAD_REACTORS
330
137
102
}
330
137
100
AcDbScale
 70
     0
300
6" = 1'-0"
140
6.0
141
12.0
290
     0
  0
SCALE
  5
148
102
{ACAD_REACTORS
330
137
102
}
330
137
100
AcDbScale
 70
     0
300
1'-0" = 1'-0"
140
12.0
141
12.0
290
     0
  0
ACDBSECTIONVIEWSTYLE
  5
15D
102
{ACAD_XDICTIONARY
360
81F
102
}
102
{ACAD_REACTORS
330
15C
102
}
330
15C
100
AcDbModelDocViewStyle
 70
     0
  3
Imperial24
290
     0
100
AcDbSectionViewStyle
 70
     0
 71
     0
 90
       78
 71
     1
340
14A
 62
   256
 40
0.24
340
0
340
0
 62
   256
 40
0.24
300
I, O, Q, S, X, Z
 40
0.48
 90
        3
 40
0.18
 90
        1
 71
     2
340
151
 90
       25
 62
   256
340
151
 90
       50
 62
   256
 40
0.24
 40
0.0
 40
0.24
 71
     3
340
14A
 62
   256
 40
0.24
 90
        1
 40
0.75
 90
        1
300
%<\AcVar ViewType \f "%tc1">% %<\AcVar ViewSectionStartId>%-%<\AcVar ViewSectionEndId>%\PSCALE %<\AcVar ViewScale \f "%sn">%
 71
     4
 62
   256
 62
   257
300
ANSI31
 40
1.0
 90
        0
290
     0
290
     0
 90
        6
 40
0.0
 40
1.570796326794896
 40
0.2617993877991494
 40
1.308996938995747
 40
-0.2617993877991494
 40
1.832595714594045
  0
TABLESTYLE
  5
159
102
{ACAD_XDICTIONARY
360
81D
102
}
102
{ACAD_REACTORS
330
158
102
}
330
158
100
AcDbTableStyle
280
     0
  3
Standard
 70
     0
 71
     0
 40
0.06
 41
0.06
280
     0
281
     0
  7
STANDARD
140
0.18
170
     2
 62
     0
 63
     7
283
     0
 90
      512
 91
        0
  1

274
    -2
284
     1
 64
     0
275
    -2
285
     1
 65
     0
276
    -2
286
     1
 66
     0
277
    -2
287
     1
 67
     0
278
    -2
288
     1
 68
     0
279
    -2
289
     1
 69
     0
  7
STANDARD
140
0.25
170
     5
 62
     0
 63
     7
283
     0
 90
      512
 91
        0
  1

274
    -2
284
     1
 64
     0
275
    -2
285
     1
 65
     0
276
    -2
286
     1
 66
     0
277
    -2
287
     1
 67
     0
278
    -2
288
     1
 68
     0
279
    -2
289
     1
 69
     0
  7
STANDARD
140
0.18
170
     5
 62
     0
 63
     7
283
     0
 90
      512
 91
        0
  1

274
    -2
284
     1
 64
     0
275
    -2
285
     1
 65
     0
276
    -2
286
     1
 66
     0
277
    -2
287
     1
 67
     0
278
    -2
288
     1
 68
     0
279
    -2
289
     1
 69
     0
  0
VISUALSTYLE
  5
124
102
{ACAD_REACTORS
330
11E
102
}
330
11E
100
AcDbVisualStyle
  2
2dWireframe
 70
     4
177
     3
291
     0
 70
    58
 90
        0
176
     1
 90
        2
176
     1
 90
        0
176
     1
 90
        0
176
     1
 40
0.6
176
     1
 40
30.0
176
     1
 62
     7
420
 16777215
176
     1
 90
        1
176
     1
 90
        4
176
     1
 62
     7
176
     1
 62
   257
176
     1
 90
        1
176
     1
 90
        1
176
     1
 40
1.0
176
     1
 90
        0
176
     1
 62
   257
176
     1
 40
1.0
176
     1
 90
        1
176
     1
 90
        6
176
     1
 90
        2
176
     1
 62
     7
176
     1
 90
        5
176
     1
 90
        0
176
     1
 90
        0
176
     1
290
     0
176
     1
 90
        1
176
     1
 40
0.0
176
     1
 90
        0
176
     1
290
     1
176
     1
290
     1
176
     1
290
     0
176
     1
290
     0
176
     1
290
     0
176
     1
290
     0
176
     1
290
     0
176
     1
290
     0
176
     1
290
     0
176
     1
 90
       50
176
     1
 40
0.0
176
     1
 40
1.0
176
     1
 90
        0
176
     1
 62
    18
176
     1
 90
       50
176
     1
 90
        3
176
     1
 62
     5
420
      255
176
     1
290
     0
176
     1
 90
       50
176
     1
 90
       50
176
     1
 90
       50
176
     1
290
     0
176
     1
 90
       50
176
     1
 62
   256
176
     0
 40
1.0
176
     0
 90
        2
176
     1
  1
strokes_ogs.tif
176
     1
290
     0
176
     1
 40
1.0
176
     1
 40
1.0
176
     1
  0
VISUALSTYLE
  5
123
102
{ACAD_REACTORS
330
11E
102
}
330
11E
100
AcDbVisualStyle
  2
Basic
 70
     7
177
     3
291
     1
 70
    58
 90
        1
176
     1
 90
        0
176
     1
 90
        1
176
     1
 90
        0
176
     1
 40
0.6
176
     1
 40
30.0
176
     1
 62
     7
420
 16777215
176
     1
 90
        0
176
     1
 90
        4
176
     1
 62
     7
176
     1
 62
   257
176
     1
 90
        1
176
     1
 90
        1
176
     1
 40
1.0
176
     1
 90
        8
176
     1
 62
     7
176
     1
 40
1.0
176
     1
 90
        1
176
     1
 90
        6
176
     1
 90
        2
176
     1
 62
     7
176
     1
 90
        5
176
     1
 90
        0
176
     1
 90
        0
176
     1
290
     0
176
     1
 90
        1
176
     1
 40
0.0
176
     1
 90
        0
176
     1
290
     0
176
     1
290
     1
176
     1
290
     1
176
     1
290
     0
176
     1
290
     0
176
     1
290
     0
176
     1
290
     0
176
     1
290
     0
176
     1
290
     0
176
     1
 90
       50
176
     1
 40
0.0
176
     1
 40
1.0
176
     1
 90
        0
176
     1
 62
    18
176
     1
 90
       50
176
     1
 90
        3
176
     1
 62
     5
420
      255
176
     1
290
     0
176
     1
 90
       50
176
     1
 90
       50
176
     1
 90
       50
176
     1
290
     0
176
     1
 90
       50
176
     1
 62
   256
176
     0
 40
1.0
176
     0
 90
        2
176
     1
  1
strokes_ogs.tif
176
     1
290
     0
176
     1
 40
1.0
176
     1
 40
1.0
176
     1
  0
VISUALSTYLE
  5
12A
102
{ACAD_REACTORS
330
11E
102
}
330
11E
100
AcDbVisualStyle
  2
Brighten
 70
    12
177
     3
291
     1
 70
    58
 90
        2
176
     1
 90
        2
176
     1
 90
        0
176
     1
 90
        0
176
     1
 40
0.6
176
     1
 40
30.0
176
     1
 62
     7
420
 16777215
176
     1
 90
        1
176
     1
 90
        4
176
     1
 62
     7
176
     1
 62
   257
176
     1
 90
        1
176
     1
 90
        1
176
     1
 40
1.0
176
     1
 90
        8
176
     1
 62
     7
176
     1
 40
1.0
176
     1
 90
        1
176
     1
 90
        6
176
     1
 90
        2
176
     1
 62
     7
176
     1
 90
        5
176
     1
 90
        0
176
     1
 90
        0
176
     1
290
     0
176
     1
 90
        1
176
     1
 40
50.0
176
     1
 90
        0
176
     1
290
     0
176
     1
290
     1
176
     1
290
     1
176
     1
290
     0
176
     1
290
     0
176
     1
290
     0
176
     1
290
     0
176
     1
290
     0
176
     1
290
     0
176
     1
 90
       50
176
     1
 40
0.0
176
     1
 40
1.0
176
     1
 90
        0
176
     1
 62
    18
176
     1
 90
       50
176
     1
 90
        3
176
     1
 62
     5
420
      255
176
     1
290
     0
176
     1
 90
       50
176
     1
 90
       50
176
     1
 90
       50
176
     1
290
     0
176
     1
 90
       50
176
     1
 62
   256
176
     0
 40
1.0
176
     0
 90
        2
176
     1
  1
strokes_ogs.tif
176
     1
290
     0
176
     1
 40
1.0
176
     1
 40
1.0
176
     1
  0
VISUALSTYLE
  5
12E
102
{ACAD_REACTORS
330
11E
102
}
330
11E
100
AcDbVisualStyle
  2
ColorChange
 70
    16
177
     3
291
     1
 70
    58
 90
        2
176
     1
 90
        2
176
     1
 90
        3
176
     1
 90
        0
176
     1
 40
0.6
176
     1
 40
30.0
176
     1
 62
     8
420
  8421504
176
     1
 90
        1
176
     1
 90
        4
176
     1
 62
     7
176
     1
 62
   257
176
     1
 90
        1
176
     1
 90
        1
176
     1
 40
1.0
176
     1
 90
        8
176
     1
 62
     8
420
  8421504
176
     1
 40
1.0
176
     1
 90
        1
176
     1
 90
        6
176
     1
 90
        2
176
     1
 62
     7
176
     1
 90
        5
176
     1
 90
        0
176
     1
 90
        0
176
     1
290
     0
176
     1
 90
        1
176
     1
 40
0.0
176
     1
 90
        0
176
     1
290
     0
176
     1
290
     1
176
     1
290
     1
176
     1
290
     0
176
     1
290
     0
176
     1
290
     0
176
     1
290
     0
176
     1
290
     0
176
     1
290
     0
176
     1
 90
       50
176
     1
 40
0.0
176
     1
 40
1.0
176
     1
 90
        0
176
     1
 62
    18
176
     1
 90
       50
176
     1
 90
        3
176
     1
 62
     5
420
      255
176
     1
290
     0
176
     1
 90
       50
176
     1
 90
       50
176
     1
 90
       50
176
     1
290
     0
176
     1
 90
       50
176
     1
 62
   256
176
     0
 40
1.0
176
     0
 90
        2
176
     1
  1
strokes_ogs.tif
176
     1
290
     0
176
     1
 40
1.0
176
     1
 40
1.0
176
     1
  0
VISUALSTYLE
  5
127
102
{ACAD_REACTORS
330
11E
102
}
330
11E
100
AcDbVisualStyle
  2
Conceptual
 70
     9
177
     3
291
     0
 70
    58
 90
        3
176
     1
 90
        2
176
     1
 90
        0
176
     1
 90
        0
176
     1
 40
0.6
176
     1
 40
30.0
176
     1
 62
     7
420
 16777215
176
     1
 90
        2
176
     1
 90
        2
176
     1
 62
     7
176
     1
 62
   257
176
     1
 90
        1
176
     1
 90
        1
176
     1
 40
179.0
176
     1
 90
        8
176
     1
 62
     7
176
     1
 40
1.0
176
     1
 90
        1
176
     1
 90
        6
176
     1
 90
        2
176
     1
 62
     7
176
     1
 90
        3
176
     1
 90
        0
176
     1
 90
        0
176
     1
290
     0
176
     1
 90
        1
176
     1
 40
0.0
176
     1
 90
        0
176
     1
290
     0
176
     1
290
     1
176
     1
290
     1
176
     1
290
     0
176
     1
290
     0
176
     1
290
     0
176
     1
290
     0
176
     1
290
     0
176
     1
290
     0
176
     1
 90
       50
176
     1
 40
0.0
176
     1
 40
1.0
176
     1
 90
        0
176
     1
 62
    18
176
     1
 90
       50
176
     1
 90
        3
176
     1
 62
     5
420
      255
176
     1
290
     0
176
     1
 90
       50
176
     1
 90
       50
176
     1
 90
       50
176
     1
290
     0
176
     1
 90
       50
176
     1
 62
   256
176
     0
 40
1.0
176
     0
 90
        2
176
     1
  1
strokes_ogs.tif
176
     1
290
     0
176
     1
 40
1.0
176
     1
 40
1.0
176
     1
  0
VISUALSTYLE
  5
129
102
{ACAD_REACTORS
330
11E
102
}
330
11E
100
AcDbVisualStyle
  2
Dim
 70
    11
177
     3
291
     1
 70
    58
 90
        2
176
     1
 90
        2
176
     1
 90
        0
176
     1
 90
        0
176
     1
 40
0.6
176
     1
 40
30.0
176
     1
 62
     7
420
 16777215
176
     1
 90
        1
176
     1
 90
        4
176
     1
 62
     7
176
     1
 62
   257
176
     1
 90
        1
176
     1
 90
        1
176
     1
 40
1.0
176
     1
 90
        8
176
     1
 62
     7
176
     1
 40
1.0
176
     1
 90
        1
176
     1
 90
        6
176
     1
 90
        2
176
     1
 62
     7
176
     1
 90
        5
176
     1
 90
        0
176
     1
 90
        0
176
     1
290
     0
176
     1
 90
        1
176
     1
 40
-50.0
176
     1
 90
        0
176
     1
290
     0
176
     1
290
     1
176
     1
290
     1
176
     1
290
     0
176
     1
290
     0
176
     1
290
     0
176
     1
290
     0
176
     1
290
     0
176
     1
290
     0
176
     1
 90
       50
176
     1
 40
0.0
176
     1
 40
1.0
176
     1
 90
        0
176
     1
 62
    18
176
     1
 90
       50
176
     1
 90
        3
176
     1
 62
     5
420
      255
176
     1
290
     0
176
     1
 90
       50
176
     1
 90
       50
176
     1
 90
       50
176
     1
290
     0
176
     1
 90
       50
176
     1
 62
   256
176
     0
 40
1.0
176
     0
 90
        2
176
     1
  1
strokes_ogs.tif
176
     1
290
     0
176
     1
 40
1.0
176
     1
 40
1.0
176
     1
  0
VISUALSTYLE
  5
136
102
{ACAD_REACTORS
330
11E
102
}
330
11E
100
AcDbVisualStyle
  2
EdgeColorOff
 70
    22
177
     3
291
     1
 70
    58
 90
        2
176
     0
 90
        2
176
     0
 90
        0
176
     0
 90
        0
176
     0
 40
0.6
176
     0
 40
30.0
176
     0
 62
     7
420
 16777215
176
     0
 90
        1
176
     0
 90
        4
176
     0
 62
     7
176
     0
 62
   257
176
     0
 90
        1
176
     0
 90
        1
176
     0
 40
1.0
176
     0
 90
        8
176
     2
 62
     7
176
     0
 40
1.0
176
     0
 90
        1
176
     0
 90
        6
176
     0
 90
        2
176
     0
 62
     7
176
     0
 90
        5
176
     0
 90
        0
176
     0
 90
        0
176
     0
290
     0
176
     0
 90
        1
176
     0
 40
0.0
176
     0
 90
        0
176
     0
290
     0
176
     1
290
     1
176
     1
290
     1
176
     1
290
     0
176
     1
290
     0
176
     1
290
     0
176
     1
290
     0
176
     1
290
     0
176
     1
290
     0
176
     1
 90
       50
176
     0
 40
0.0
176
     0
 40
1.0
176
     0
 90
        0
176
     0
 62
    18
176
     0
 90
       50
176
     0
 90
        3
176
     0
 62
     5
420
      255
176
     0
290
     0
176
     1
 90
       50
176
     0
 90
       50
176
     0
 90
       50
176
     0
290
     0
176
     1
 90
       50
176
     0
 62
   256
176
     0
 40
1.0
176
     0
 90
        2
176
     0
  1
strokes_ogs.tif
176
     0
290
     0
176
     1
 40
1.0
176
     0
 40
1.0
176
     0
  0
VISUALSTYLE
  5
12D
102
{ACAD_REACTORS
330
11E
102
}
330
11E
100
AcDbVisualStyle
  2
Facepattern
 70
    15
177
     3
291
     1
 70
    58
 90
        2
176
     1
 90
        2
176
     1
 90
        0
176
     1
 90
        0
176
     1
 40
0.6
176
     1
 40
30.0
176
     1
 62
     7
420
 16777215
176
     1
 90
        1
176
     1
 90
        4
176
     1
 62
     7
176
     1
 62
   257
176
     1
 90
        1
176
     1
 90
        1
176
     1
 40
1.0
176
     1
 90
        8
176
     1
 62
     7
176
     1
 40
1.0
176
     1
 90
        1
176
     1
 90
        6
176
     1
 90
        2
176
     1
 62
     7
176
     1
 90
        5
176
     1
 90
        0
176
     1
 90
        0
176
     1
290
     0
176
     1
 90
        1
176
     1
 40
0.0
176
     1
 90
        0
176
     1
290
     0
176
     1
290
     1
176
     1
290
     1
176
     1
290
     0
176
     1
290
     0
176
     1
290
     0
176
     1
290
     0
176
     1
290
     0
176
     1
290
     0
176
     1
 90
       50
176
     1
 40
0.0
176
     1
 40
1.0
176
     1
 90
        0
176
     1
 62
    18
176
     1
 90
       50
176
     1
 90
        3
176
     1
 62
     5
420
      255
176
     1
290
     0
176
     1
 90
       50
176
     1
 90
       50
176
     1
 90
       50
176
     1
290
     0
176
     1
 90
       50
176
     1
 62
   256
176
     0
 40
1.0
176
     0
 90
        2
176
     1
  1
strokes_ogs.tif
176
     1
290
     0
176
     1
 40
1.0
176
     1
 40
1.0
176
     1
  0
VISUALSTYLE
  5
11F
102
{ACAD_REACTORS
330
11E
102
}
330
11E
100
AcDbVisualStyle
  2
Flat
 70
     0
177
     3
291
     1
 70
    58
 90
        2
176
     1
 90
        1
176
     1
 90
        1
176
     1
 90
        2
176
     1
 40
0.6
176
     1
 40
30.0
176
     1
 62
     7
420
 16777215
176
     1
 90
        0
176
     1
 90
        0
176
     1
 62
     7
176
     1
 62
   257
176
     1
 90
        1
176
     1
 90
        1
176
     1
 40
1.0
176
     1
 90
        8
176
     1
 62
     7
176
     1
 40
1.0
176
     1
 90
        1
176
     1
 90
        6
176
     1
 90
        2
176
     1
 62
     7
176
     1
 90
        5
176
     1
 90
        0
176
     1
 90
        0
176
     1
290
     0
176
     1
 90
       13
176
     1
 40
0.0
176
     1
 90
        0
176
     1
290
     0
176
     1
290
     1
176
     1
290
     1
176
     1
290
     0
176
     1
290
     0
176
     1
290
     0
176
     1
290
     0
176
     1
290
     0
176
     1
290
     0
176
     1
 90
       50
176
     1
 40
0.0
176
     1
 40
1.0
176
     1
 90
        0
176
     1
 62
    18
176
     1
 90
       50
176
     1
 90
        3
176
     1
 62
     5
420
      255
176
     1
290
     0
176
     1
 90
       50
176
     1
 90
       50
176
     1
 90
       50
176
     1
290
     0
176
     1
 90
       50
176
     1
 62
   256
176
     0
 40
1.0
176
     0
 90
        2
176
     1
  1
strokes_ogs.tif
176
     1
290
     0
176
     1
 40
1.0
176
     1
 40
1.0
176
     1
  0
VISUALSTYLE
  5
120
102
{ACAD_REACTORS
330
11E
102
}
330
11E
100
AcDbVisualStyle
  2
FlatWithEdges
 70
     1
177
     3
291
     1
 70
    58
 90
        2
176
     1
 90
        1
176
     1
 90
        1
176
     1
 90
        2
176
     1
 40
0.6
176
     1
 40
30.0
176
     1
 62
     7
420
 16777215
176
     1
 90
        1
176
     1
 90
        0
176
     1
 62
     7
176
     1
 62
   257
176
     1
 90
        1
176
     1
 90
        1
176
     1
 40
1.0
176
     1
 90
        0
176
     1
 62
   257
176
     1
 40
1.0
176
     1
 90
        1
176
     1
 90
        6
176
     1
 90
        2
176
     1
 62
     7
176
     1
 90
        5
176
     1
 90
        0
176
     1
 90
        0
176
     1
290
     0
176
     1
 90
       13
176
     1
 40
0.0
176
     1
 90
        0
176
     1
290
     0
176
     1
290
     1
176
     1
290
     1
176
     1
290
     0
176
     1
290
     0
176
     1
290
     0
176
     1
290
     0
176
     1
290
     0
176
     1
290
     0
176
     1
 90
       50
176
     1
 40
0.0
176
     1
 40
1.0
176
     1
 90
        0
176
     1
 62
    18
176
     1
 90
       50
176
     1
 90
        3
176
     1
 62
     5
420
      255
176
     1
290
     0
176
     1
 90
       50
176
     1
 90
       50
176
     1
 90
       50
176
     1
290
     0
176
     1
 90
       50
176
     1
 62
   256
176
     0
 40
1.0
176
     0
 90
        2
176
     1
  1
strokes_ogs.tif
176
     1
290
     0
176
     1
 40
1.0
176
     1
 40
1.0
176
     1
  0
VISUALSTYLE
  5
121
102
{ACAD_REACTORS
330
11E
102
}
330
11E
100
AcDbVisualStyle
  2
Gouraud
 70
     2
177
     3
291
     1
 70
    58
 90
        2
176
     1
 90
        2
176
     1
 90
        1
176
     1
 90
        2
176
     1
 40
0.6
176
     1
 40
30.0
176
     1
 62
     7
420
 16777215
176
     1
 90
        0
176
     1
 90
        0
176
     1
 62
     7
176
     1
 62
   257
176
     1
 90
        1
176
     1
 90
        1
176
     1
 40
1.0
176
     1
 90
        0
176
     1
 62
     7
176
     1
 40
1.0
176
     1
 90
        1
176
     1
 90
        6
176
     1
 90
        2
176
     1
 62
     7
176
     1
 90
        5
176
     1
 90
        0
176
     1
 90
        0
176
     1
290
     0
176
     1
 90
       13
176
     1
 40
0.0
176
     1
 90
        0
176
     1
290
     0
176
     1
290
     1
176
     1
290
     1
176
     1
290
     0
176
     1
290
     0
176
     1
290
     0
176
     1
290
     0
176
     1
290
     0
176
     1
290
     0
176
     1
 90
       50
176
     1
 40
0.0
176
     1
 40
1.0
176
     1
 90
        0
176
     1
 62
    18
176
     1
 90
       50
176
     1
 90
        3
176
     1
 62
     5
420
      255
176
     1
290
     0
176
     1
 90
       50
176
     1
 90
       50
176
     1
 90
       50
176
     1
290
     0
176
     1
 90
       50
176
     1
 62
   256
176
     0
 40
1.0
176
     0
 90
        2
176
     1
  1
strokes_ogs.tif
176
     1
290
     0
176
     1
 40
1.0
176
     1
 40
1.0
176
     1
  0
VISUALSTYLE
  5
122
102
{ACAD_REACTORS
330
11E
102
}
330
11E
100
AcDbVisualStyle
  2
GouraudWithEdges
 70
     3
177
     3
291
     1
 70
    58
 90
        2
176
     1
 90
        2
176
     1
 90
        1
176
     1
 90
        2
176
     1
 40
0.6
176
     1
 40
30.0
176
     1
 62
     7
420
 16777215
176
     1
 90
        1
176
     1
 90
        0
176
     1
 62
     7
176
     1
 62
   257
176
     1
 90
        1
176
     1
 90
        1
176
     1
 40
1.0
176
     1
 90
        0
176
     1
 62
   257
176
     1
 40
1.0
176
     1
 90
        1
176
     1
 90
        6
176
     1
 90
        2
176
     1
 62
     7
176
     1
 90
        5
176
     1
 90
        0
176
     1
 90
        0
176
     1
290
     0
176
     1
 90
       13
176
     1
 40
0.0
176
     1
 90
        0
176
     1
290
     0
176
     1
290
     1
176
     1
290
     1
176
     1
290
     0
176
     1
290
     0
176
     1
290
     0
176
     1
290
     0
176
     1
290
     0
176
     1
290
     0
176
     1
 90
       50
176
     1
 40
0.0
176
     1
 40
1.0
176
     1
 90
        0
176
     1
 62
    18
176
     1
 90
       50
176
     1
 90
        3
176
     1
 62
     5
420
      255
176
     1
290
     0
176
     1
 90
       50
176
     1
 90
       50
176
     1
 90
       50
176
     1
290
     0
176
     1
 90
       50
176
     1
 62
   256
176
     0
 40
1.0
176
     0
 90
        2
176
     1
  1
strokes_ogs.tif
176
     1
290
     0
176
     1
 40
1.0
176
     1
 40
1.0
176
     1
  0
VISUALSTYLE
  5
126
102
{ACAD_REACTORS
330
11E
102
}
330
11E
100
AcDbVisualStyle
  2
Hidden
 70
     6
177
     3
291
     0
 70
    58
 90
        1
176
     1
 90
        2
176
     1
 90
        2
176
     1
 90
        0
176
     1
 40
0.6
176
     1
 40
30.0
176
     1
 62
     7
420
 16777215
176
     1
 90
        2
176
     1
 90
        2
176
     1
 62
     7
176
     1
 62
   257
176
     1
 90
        2
176
     1
 90
        1
176
     1
 40
40.0
176
     1
 90
        0
176
     1
 62
   257
176
     1
 40
1.0
176
     1
 90
        1
176
     1
 90
        6
176
     1
 90
        2
176
     1
 62
     7
176
     1
 90
        3
176
     1
 90
        0
176
     1
 90
        0
176
     1
290
     0
176
     1
 90
        1
176
     1
 40
0.0
176
     1
 90
        0
176
     1
290
     0
176
     1
290
     1
176
     1
290
     1
176
     1
290
     0
176
     1
290
     0
176
     1
290
     0
176
     1
290
     0
176
     1
290
     0
176
     1
290
     0
176
     1
 90
       50
176
     1
 40
0.0
176
     1
 40
1.0
176
     1
 90
        0
176
     1
 62
    18
176
     1
 90
       50
176
     1
 90
        3
176
     1
 62
     5
420
      255
176
     1
290
     0
176
     1
 90
       50
176
     1
 90
       50
176
     1
 90
       50
176
     1
290
     0
176
     1
 90
       50
176
     1
 62
   256
176
     0
 40
1.0
176
     0
 90
        2
176
     1
  1
strokes_ogs.tif
176
     1
290
     0
176
     1
 40
1.0
176
     1
 40
1.0
176
     1
  0
VISUALSTYLE
  5
134
102
{ACAD_REACTORS
330
11E
102
}
330
11E
100
AcDbVisualStyle
  2
JitterOff
 70
    20
177
     3
291
     1
 70
    58
 90
        2
176
     0
 90
        2
176
     0
 90
        0
176
     0
 90
        0
176
     0
 40
0.6
176
     0
 40
30.0
176
     0
 62
     7
420
 16777215
176
     0
 90
        1
176
     0
 90
        4
176
     0
 62
     7
176
     0
 62
   257
176
     0
 90
        1
176
     0
 90
        1
176
     0
 40
1.0
176
     0
 90
       10
176
     2
 62
     7
176
     0
 40
1.0
176
     0
 90
        1
176
     0
 90
        6
176
     0
 90
        2
176
     0
 62
     7
176
     0
 90
        5
176
     0
 90
        0
176
     0
 90
        0
176
     0
290
     0
176
     0
 90
        1
176
     0
 40
0.0
176
     0
 90
        0
176
     0
290
     0
176
     1
290
     1
176
     1
290
     1
176
     1
290
     0
176
     1
290
     0
176
     1
290
     0
176
     1
290
     0
176
     1
290
     0
176
     1
290
     0
176
     1
 90
       50
176
     0
 40
0.0
176
     0
 40
1.0
176
     0
 90
        0
176
     0
 62
    18
176
     0
 90
       50
176
     0
 90
        3
176
     0
 62
     5
420
      255
176
     0
290
     0
176
     1
 90
       50
176
     0
 90
       50
176
     0
 90
       50
176
     0
290
     0
176
     1
 90
       50
176
     0
 62
   256
176
     0
 40
1.0
176
     0
 90
        2
176
     0
  1
strokes_ogs.tif
176
     0
290
     0
176
     1
 40
1.0
176
     0
 40
1.0
176
     0
  0
VISUALSTYLE
  5
12C
102
{ACAD_REACTORS
330
11E
102
}
330
11E
100
AcDbVisualStyle
  2
Linepattern
 70
    14
177
     3
291
     1
 70
    58
 90
        2
176
     1
 90
        2
176
     1
 90
        0
176
     1
 90
        0
176
     1
 40
0.6
176
     1
 40
30.0
176
     1
 62
     7
420
 16777215
176
     1
 90
        1
176
     1
 90
        4
176
     1
 62
     7
176
     1
 62
   257
176
     1
 90
        7
176
     1
 90
        7
176
     1
 40
1.0
176
     1
 90
        8
176
     1
 62
     7
176
     1
 40
1.0
176
     1
 90
        1
176
     1
 90
        6
176
     1
 90
        2
176
     1
 62
     7
176
     1
 90
        5
176
     1
 90
        0
176
     1
 90
        0
176
     1
290
     0
176
     1
 90
        1
176
     1
 40
0.0
176
     1
 90
        0
176
     1
290
     0
176
     1
290
     1
176
     1
290
     1
176
     1
290
     0
176
     1
290
     0
176
     1
290
     0
176
     1
290
     0
176
     1
290
     0
176
     1
290
     0
176
     1
 90
       50
176
     1
 40
0.0
176
     1
 40
1.0
176
     1
 90
        0
176
     1
 62
    18
176
     1
 90
       50
176
     1
 90
        3
176
     1
 62
     5
420
      255
176
     1
290
     0
176
     1
 90
       50
176
     1
 90
       50
176
     1
 90
       50
176
     1
290
     0
176
     1
 90
       50
176
     1
 62
   256
176
     0
 40
1.0
176
     0
 90
        2
176
     1
  1
strokes_ogs.tif
176
     1
290
     0
176
     1
 40
1.0
176
     1
 40
1.0
176
     1
  0
VISUALSTYLE
  5
135
102
{ACAD_REACTORS
330
11E
102
}
330
11E
100
AcDbVisualStyle
  2
OverhangOff
 70
    21
177
     3
291
     1
 70
    58
 90
        2
176
     0
 90
        2
176
     0
 90
        0
176
     0
 90
        0
176
     0
 40
0.6
176
     0
 40
30.0
176
     0
 62
     7
420
 16777215
176
     0
 90
        1
176
     0
 90
        4
176
     0
 62
     7
176
     0
 62
   257
176
     0
 90
        1
176
     0
 90
        1
176
     0
 40
1.0
176
     0
 90
        9
176
     2
 62
     7
176
     0
 40
1.0
176
     0
 90
        1
176
     0
 90
        6
176
     0
 90
        2
176
     0
 62
     7
176
     0
 90
        5
176
     0
 90
        0
176
     0
 90
        0
176
     0
290
     0
176
     0
 90
        1
176
     0
 40
0.0
176
     0
 90
        0
176
     0
290
     0
176
     1
290
     1
176
     1
290
     1
176
     1
290
     0
176
     1
290
     0
176
     1
290
     0
176
     1
290
     0
176
     1
290
     0
176
     1
290
     0
176
     1
 90
       50
176
     0
 40
0.0
176
     0
 40
1.0
176
     0
 90
        0
176
     0
 62
    18
176
     0
 90
       50
176
     0
 90
        3
176
     0
 62
     5
420
      255
176
     0
290
     0
176
     1
 90
       50
176
     0
 90
       50
176
     0
 90
       50
176
     0
290
     0
176
     1
 90
       50
176
     0
 62
   256
176
     0
 40
1.0
176
     0
 90
        2
176
     0
  1
strokes_ogs.tif
176
     0
290
     0
176
     1
 40
1.0
176
     0
 40
1.0
176
     0
  0
VISUALSTYLE
  5
128
102
{ACAD_REACTORS
330
11E
102
}
330
11E
100
AcDbVisualStyle
  2
Realistic
 70
     8
177
     3
291
     0
 70
    58
 90
        2
176
     1
 90
        3
176
     1
 90
        0
176
     1
 90
        2
176
     1
 40
0.6
176
     1
 40
30.0
176
     1
 62
     7
420
 16777215
176
     1
 90
        0
176
     1
 90
        0
176
     1
 62
     7
176
     1
 62
   257
176
     1
 90
        1
176
     1
 90
        1
176
     1
 40
1.0
176
     1
 90
        8
176
     1
 62
   257
176
     1
 40
1.0
176
     1
 90
        1
176
     1
 90
        6
176
     1
 90
        2
176
     1
 62
     7
176
     1
 90
        3
176
     1
 90
        0
176
     1
 90
        0
176
     1
290
     0
176
     1
 90
       13
176
     1
 40
0.0
176
     1
 90
        0
176
     1
290
     0
176
     1
290
     1
176
     1
290
     1
176
     1
290
     0
176
     1
290
     0
176
     1
290
     0
176
     1
290
     0
176
     1
290
     0
176
     1
290
     0
176
     1
 90
       50
176
     1
 40
0.0
176
     1
 40
1.0
176
     1
 90
        0
176
     1
 62
    18
176
     1
 90
       50
176
     1
 90
        3
176
     1
 62
     5
420
      255
176
     1
290
     0
176
     1
 90
       50
176
     1
 90
       50
176
     1
 90
       50
176
     1
290
     0
176
     1
 90
       50
176
     1
 62
   256
176
     0
 40
1.0
176
     0
 90
        2
176
     1
  1
strokes_ogs.tif
176
     1
290
     0
176
     1
 40
1.0
176
     1
 40
1.0
176
     1
  0
VISUALSTYLE
  5
133
102
{ACAD_REACTORS
330
11E
102
}
330
11E
100
AcDbVisualStyle
  2
Shaded
 70
    27
177
     3
291
     0
 70
    58
 90
        2
176
     1
 90
        2
176
     1
 90
        1
176
     1
 90
        2
176
     1
 40
0.6
176
     1
 40
30.0
176
     1
 62
     7
420
 16777215
176
     1
 90
        0
176
     1
 90
        4
176
     1
 62
     7
176
     1
 62
   257
176
     1
 90
        1
176
     1
 90
        1
176
     1
 40
1.0
176
     1
 90
        8
176
     1
 62
   257
176
     1
 40
1.0
176
     1
 90
        1
176
     1
 90
        6
176
     1
 90
        2
176
     1
 62
     8
420
  7895160
176
     1
 90
        3
176
     1
 90
        0
176
     1
 90
        0
176
     1
290
     0
176
     1
 90
        5
176
     1
 40
0.0
176
     1
 90
        0
176
     1
290
     0
176
     1
290
     1
176
     1
290
     1
176
     1
290
     0
176
     1
290
     0
176
     1
290
     0
176
     1
290
     0
176
     1
290
     0
176
     1
290
     0
176
     1
 90
       50
176
     1
 40
0.0
176
     1
 40
1.0
176
     1
 90
        0
176
     1
 62
    18
176
     1
 90
       50
176
     1
 90
        3
176
     1
 62
     5
420
      255
176
     1
290
     0
176
     1
 90
       50
176
     1
 90
       50
176
     1
 90
       50
176
     1
290
     0
176
     1
 90
       50
176
     1
 62
   256
176
     0
 40
1.0
176
     0
 90
        2
176
     1
  1
strokes_ogs.tif
176
     1
290
     0
176
     1
 40
1.0
176
     1
 40
1.0
176
     1
  0
VISUALSTYLE
  5
132
102
{ACAD_REACTORS
330
11E
102
}
330
11E
100
AcDbVisualStyle
  2
Shaded with edges
 70
    26
177
     3
291
     0
 70
    58
 90
        2
176
     1
 90
        2
176
     1
 90
        1
176
     1
 90
        2
176
     1
 40
0.6
176
     1
 40
30.0
176
     1
 62
     7
420
 16777215
176
     1
 90
        1
176
     1
 90
        2
176
     1
 62
     7
176
     1
 62
   257
176
     1
 90
        2
176
     1
 90
        1
176
     1
 40
1.0
176
     1
 90
        8
176
     1
 62
   257
176
     1
 40
1.0
176
     1
 90
        1
176
     1
 90
        6
176
     1
 90
        2
176
     1
 62
     7
176
     1
 90
        3
176
     1
 90
        0
176
     1
 90
        0
176
     1
290
     0
176
     1
 90
        5
176
     1
 40
0.0
176
     1
 90
        0
176
     1
290
     0
176
     1
290
     1
176
     1
290
     1
176
     1
290
     0
176
     1
290
     0
176
     1
290
     0
176
     1
290
     0
176
     1
290
     0
176
     1
290
     0
176
     1
 90
       50
176
     1
 40
0.0
176
     1
 40
1.0
176
     1
 90
        0
176
     1
 62
    18
176
     1
 90
       50
176
     1
 90
        3
176
     1
 62
     5
420
      255
176
     1
290
     0
176
     1
 90
       50
176
     1
 90
       50
176
     1
 90
       50
176
     1
290
     0
176
     1
 90
       50
176
     1
 62
   256
176
     0
 40
1.0
176
     0
 90
        2
176
     1
  1
strokes_ogs.tif
176
     1
290
     0
176
     1
 40
1.0
176
     1
 40
1.0
176
     1
  0
VISUALSTYLE
  5
12F
102
{ACAD_REACTORS
330
11E
102
}
330
11E
100
AcDbVisualStyle
  2
Shades of Gray
 70
    23
177
     3
291
     0
 70
    58
 90
        2
176
     1
 90
        2
176
     1
 90
        3
176
     1
 90
        0
176
     1
 40
0.6
176
     1
 40
30.0
176
     1
 62
     7
420
 16777215
176
     1
 90
        2
176
     1
 90
        2
176
     1
 62
     7
176
     1
 62
     7
176
     1
 90
        1
176
     1
 90
        1
176
     1
 40
40.0
176
     1
 90
        8
176
     1
 62
     7
176
     1
 40
1.0
176
     1
 90
        1
176
     1
 90
        6
176
     1
 90
        2
176
     1
 62
     7
176
     1
 90
        3
176
     1
 90
        0
176
     1
 90
        0
176
     1
290
     0
176
     1
 90
        1
176
     1
 40
0.0
176
     1
 90
        0
176
     1
290
     0
176
     1
290
     1
176
     1
290
     1
176
     1
290
     0
176
     1
290
     0
176
     1
290
     0
176
     1
290
     0
176
     1
290
     0
176
     1
290
     0
176
     1
 90
       50
176
     1
 40
0.0
176
     1
 40
1.0
176
     1
 90
        0
176
     1
 62
    18
176
     1
 90
       50
176
     1
 90
        3
176
     1
 62
     5
420
      255
176
     1
290
     0
176
     1
 90
       50
176
     1
 90
       50
176
     1
 90
       50
176
     1
290
     0
176
     1
 90
       50
176
     1
 62
   256
176
     0
 40
1.0
176
     0
 90
        2
176
     1
  1
strokes_ogs.tif
176
     1
290
     0
176
     1
 40
1.0
176
     1
 40
1.0
176
     1
  0
VISUALSTYLE
  5
130
102
{ACAD_REACTORS
330
11E
102
}
330
11E
100
AcDbVisualStyle
  2
Sketchy
 70
    24
177
     3
291
     0
 70
    58
 90
        1
176
     1
 90
        2
176
     1
 90
        2
176
     1
 90
        0
176
     1
 40
0.6
176
     1
 40
30.0
176
     1
 62
     7
420
 16777215
176
     1
 90
        2
176
     1
 90
        2
176
     1
 62
     7
176
     1
 62
     7
176
     1
 90
        1
176
     1
 90
        1
176
     1
 40
40.0
176
     1
 90
       11
176
     1
 62
     7
176
     1
 40
1.0
176
     1
 90
        1
176
     1
 90
        6
176
     1
 90
        2
176
     1
 62
     7
176
     1
 90
        6
176
     1
 90
        0
176
     1
 90
        0
176
     1
290
     0
176
     1
 90
        1
176
     1
 40
0.0
176
     1
 90
        0
176
     1
290
     0
176
     1
290
     1
176
     1
290
     1
176
     1
290
     0
176
     1
290
     0
176
     1
290
     0
176
     1
290
     0
176
     1
290
     0
176
     1
290
     0
176
     1
 90
       50
176
     1
 40
0.0
176
     1
 40
1.0
176
     1
 90
        0
176
     1
 62
    18
176
     1
 90
       50
176
     1
 90
        3
176
     1
 62
     5
420
      255
176
     1
290
     0
176
     1
 90
       50
176
     1
 90
       50
176
     1
 90
       50
176
     1
290
     0
176
     1
 90
       50
176
     1
 62
   256
176
     0
 40
1.0
176
     0
 90
        2
176
     1
  1
strokes_ogs.tif
176
     1
290
     0
176
     1
 40
1.0
176
     1
 40
1.0
176
     1
  0
VISUALSTYLE
  5
12B
102
{ACAD_REACTORS
330
11E
102
}
330
11E
100
AcDbVisualStyle
  2
Thicken
 70
    13
177
     3
291
     1
 70
    58
 90
        2
176
     1
 90
        2
176
     1
 90
        0
176
     1
 90
        0
176
     1
 40
0.6
176
     1
 40
30.0
176
     1
 62
     7
420
 16777215
176
     1
 90
        1
176
     1
 90
        4
176
     1
 62
     7
176
     1
 62
   257
176
     1
 90
        1
176
     1
 90
        1
176
     1
 40
1.0
176
     1
 90
       12
176
     1
 62
     7
176
     1
 40
1.0
176
     1
 90
        1
176
     1
 90
        6
176
     1
 90
        2
176
     1
 62
     7
176
     1
 90
        5
176
     1
 90
        0
176
     1
 90
        0
176
     1
290
     0
176
     1
 90
        1
176
     1
 40
0.0
176
     1
 90
        0
176
     1
290
     0
176
     1
290
     1
176
     1
290
     1
176
     1
290
     0
176
     1
290
     0
176
     1
290
     0
176
     1
290
     0
176
     1
290
     0
176
     1
290
     0
176
     1
 90
       50
176
     1
 40
0.0
176
     1
 40
1.0
176
     1
 90
        0
176
     1
 62
    18
176
     1
 90
       50
176
     1
 90
        3
176
     1
 62
     5
420
      255
176
     1
290
     0
176
     1
 90
       50
176
     1
 90
       50
176
     1
 90
       50
176
     1
290
     0
176
     1
 90
       50
176
     1
 62
   256
176
     0
 40
1.0
176
     0
 90
        2
176
     1
  1
strokes_ogs.tif
176
     1
290
     0
176
     1
 40
1.0
176
     1
 40
1.0
176
     1
  0
VISUALSTYLE
  5
125
102
{ACAD_REACTORS
330
11E
102
}
330
11E
100
AcDbVisualStyle
  2
Wireframe
 70
     5
177
     3
291
     0
 70
    58
 90
        0
176
     1
 90
        2
176
     1
 90
        0
176
     1
 90
        0
176
     1
 40
0.6
176
     1
 40
30.0
176
     1
 62
     7
420
 16777215
176
     1
 90
        1
176
     1
 90
        4
176
     1
 62
     7
176
     1
 62
   257
176
     1
 90
        1
176
     1
 90
        1
176
     1
 40
1.0
176
     1
 90
        0
176
     1
 62
   257
176
     1
 40
1.0
176
     1
 90
        1
176
     1
 90
        6
176
     1
 90
        2
176
     1
 62
     7
176
     1
 90
        3
176
     1
 90
        0
176
     1
 90
        0
176
     1
290
     0
176
     1
 90
        1
176
     1
 40
0.0
176
     1
 90
        0
176
     1
290
     0
176
     1
290
     1
176
     1
290
     1
176
     1
290
     0
176
     1
290
     0
176
     1
290
     0
176
     1
290
     0
176
     1
290
     0
176
     1
290
     0
176
     1
 90
       50
176
     1
 40
0.0
176
     1
 40
1.0
176
     1
 90
        0
176
     1
 62
    18
176
     1
 90
       50
176
     1
 90
        3
176
     1
 62
     5
420
      255
176
     1
290
     0
176
     1
 90
       50
176
     1
 90
       50
176
     1
 90
       50
176
     1
290
     0
176
     1
 90
       50
176
     1
 62
   256
176
     0
 40
1.0
176
     0
 90
        2
176
     1
  1
strokes_ogs.tif
176
     1
290
     0
176
     1
 40
1.0
176
     1
 40
1.0
176
     1
  0
VISUALSTYLE
  5
131
102
{ACAD_REACTORS
330
11E
102
}
330
11E
100
AcDbVisualStyle
  2
X-Ray
 70
    25
177
     3
291
     0
 70
    58
 90
        2
176
     1
 90
        2
176
     1
 90
        1
176
     1
 90
        1
176
     1
 40
0.5
176
     1
 40
30.0
176
     1
 62
     7
420
 16777215
176
     1
 90
        1
176
     1
 90
        0
176
     1
 62
     7
176
     1
 62
   257
176
     1
 90
        1
176
     1
 90
        1
176
     1
 40
1.0
176
     1
 90
        8
176
     1
 62
     7
176
     1
 40
1.0
176
     1
 90
        1
176
     1
 90
        6
176
     1
 90
        2
176
     1
 62
     7
176
     1
 90
        3
176
     1
 90
        0
176
     1
 90
        0
176
     1
290
     0
176
     1
 90
       13
176
     1
 40
0.0
176
     1
 90
        0
176
     1
290
     0
176
     1
290
     1
176
     1
290
     1
176
     1
290
     0
176
     1
290
     0
176
     1
290
     0
176
     1
290
     0
176
     1
290
     0
176
     1
290
     0
176
     1
 90
       50
176
     1
 40
0.0
176
     1
 40
1.0
176
     1
 90
        0
176
     1
 62
    18
176
     1
 90
       50
176
     1
 90
        3
176
     1
 62
     5
420
      255
176
     1
290
     0
176
     1
 90
       50
176
     1
 90
       50
176
     1
 90
       50
176
     1
290
     0
176
     1
 90
       50
176
     1
 62
   256
176
     0
 40
1.0
176
     0
 90
        2
176
     1
  1
strokes_ogs.tif
176
     1
290
     0
176
     1
 40
1.0
176
     1
 40
1.0
176
     1
  0
DICTIONARYVAR
  5
819
102
{ACAD_REACTORS
330
288
102
}
330
288
100
DictionaryVariables
280
     0
  1
1:1
  0
DICTIONARYVAR
  5
815
102
{ACAD_REACTORS
330
288
102
}
330
288
100
DictionaryVariables
280
     0
  1
STANDARD
  0
DICTIONARYVAR
  5
814
102
{ACAD_REACTORS
330
288
102
}
330
288
100
DictionaryVariables
280
     0
  1
STANDARD
  0
DICTIONARYVAR
  5
816
102
{ACAD_REACTORS
330
288
102
}
330
288
100
DictionaryVariables
280
     0
  1
Imperial24
  0
DICTIONARYVAR
  5
817
102
{ACAD_REACTORS
330
288
102
}
330
288
100
DictionaryVariables
280
     0
  1
Imperial24
  0
DICTIONARYVAR
  5
81B
102
{ACAD_REACTORS
330
288
102
}
330
288
100
DictionaryVariables
280
     0
  1
1
  0
DICTIONARYVAR
  5
81C
102
{ACAD_REACTORS
330
288
102
}
330
288
100
DictionaryVariables
280
     0
  1
15
  0
DICTIONARYVAR
  5
81A
102
{ACAD_REACTORS
330
288
102
}
330
288
100
DictionaryVariables
280
     0
  1
0
  0
DICTIONARYVAR
  5
818
102
{ACAD_REACTORS
330
288
102
}
330
288
100
DictionaryVariables
280
     0
  1
0
  0
DICTIONARY
  5
821
330
15F
100
AcDbDictionary
280
     1
281
     1
  3
ACAD_XREC_ROUNDTRIP
360
99D
  0
DICTIONARY
  5
10F
330
10E
100
AcDbDictionary
280
     1
281
     1
  3
BUMPTILE
360
111
  3
DIFFUSETILE
360
110
  3
OPACITYTILE
360
114
  3
REFLECTIONTILE
360
113
  3
REFRACTIONTILE
360
115
  3
SPECULARTILE
360
112
  0
DICTIONARY
  5
107
330
106
100
AcDbDictionary
280
     1
281
     1
  3
BUMPTILE
360
109
  3
DIFFUSETILE
360
108
  3
OPACITYTILE
360
10C
  3
REFLECTIONTILE
360
10B
  3
REFRACTIONTILE
360
10D
  3
SPECULARTILE
360
10A
  0
DICTIONARY
  5
117
330
116
100
AcDbDictionary
280
     1
281
     1
  3
BUMPTILE
360
119
  3
DIFFUSETILE
360
118
  3
OPACITYTILE
360
11C
  3
REFLECTIONTILE
360
11B
  3
REFRACTIONTILE
360
11D
  3
SPECULARTILE
360
11A
  0
DICTIONARY
  5
81F
330
15D
100
AcDbDictionary
280
     1
281
     1
  3
ACAD_XREC_ROUNDTRIP
360
99C
  0
DICTIONARY
  5
81D
330
159
100
AcDbDictionary
280
     1
281
     1
  3
ACAD_ROUNDTRIP_2008_TABLESTYLE_CELLSTYLEMAP
360
99B
  0
XRECORD
  5
99D
102
{ACAD_REACTORS
330
821
102
}
330
821
100
AcDbXrecord
280
     1
102
DISPLAYNAME
  1
Imperial24
102
FLAGS
 90
        0
  0
XRECORD
  5
111
102
{ACAD_REACTORS
330
10F
102
}
330
10F
100
AcDbXrecord
280
     1
270
     1
271
     1
  0
XRECORD
  5
110
102
{ACAD_REACTORS
330
10F
102
}
330
10F
100
AcDbXrecord
280
     1
270
     1
271
     1
  0
XRECORD
  5
114
102
{ACAD_REACTORS
330
10F
102
}
330
10F
100
AcDbXrecord
280
     1
270
     1
271
     1
  0
XRECORD
  5
113
102
{ACAD_REACTORS
330
10F
102
}
330
10F
100
AcDbXrecord
280
     1
270
     1
271
     1
  0
XRECORD
  5
115
102
{ACAD_REACTORS
330
10F
102
}
330
10F
100
AcDbXrecord
280
     1
270
     1
271
     1
  0
XRECORD
  5
112
102
{ACAD_REACTORS
330
10F
102
}
330
10F
100
AcDbXrecord
280
     1
270
     1
271
     1
  0
XRECORD
  5
109
102
{ACAD_REACTORS
330
107
102
}
330
107
100
AcDbXrecord
280
     1
270
     1
271
     1
  0
XRECORD
  5
108
102
{ACAD_REACTORS
330
107
102
}
330
107
100
AcDbXrecord
280
     1
270
     1
271
     1
  0
XRECORD
  5
10C
102
{ACAD_REACTORS
330
107
102
}
330
107
100
AcDbXrecord
280
     1
270
     1
271
     1
  0
XRECORD
  5
10B
102
{ACAD_REACTORS
330
107
102
}
330
107
100
AcDbXrecord
280
     1
270
     1
271
     1
  0
XRECORD
  5
10D
102
{ACAD_REACTORS
330
107
102
}
330
107
100
AcDbXrecord
280
     1
270
     1
271
     1
  0
XRECORD
  5
10A
102
{ACAD_REACTORS
330
107
102
}
330
107
100
AcDbXrecord
280
     1
270
     1
271
     1
  0
XRECORD
  5
119
102
{ACAD_REACTORS
330
117
102
}
330
117
100
AcDbXrecord
280
     1
270
     1
271
     1
  0
XRECORD
  5
118
102
{ACAD_REACTORS
330
117
102
}
330
117
100
AcDbXrecord
280
     1
270
     1
271
     1
  0
XRECORD
  5
11C
102
{ACAD_REACTORS
330
117
102
}
330
117
100
AcDbXrecord
280
     1
270
     1
271
     1
  0
XRECORD
  5
11B
102
{ACAD_REACTORS
330
117
102
}
330
117
100
AcDbXrecord
280
     1
270
     1
271
     1
  0
XRECORD
  5
11D
102
{ACAD_REACTORS
330
117
102
}
330
117
100
AcDbXrecord
280
     1
270
     1
271
     1
  0
XRECORD
  5
11A
102
{ACAD_REACTORS
330
117
102
}
330
117
100
AcDbXrecord
280
     1
270
     1
271
     1
  0
XRECORD
  5
99C
102
{ACAD_REACTORS
330
81F
102
}
330
81F
100
AcDbXrecord
280
     1
102
DISPLAYNAME
  1
Imperial24
102
FLAGS
 90
        0
  0
CELLSTYLEMAP
  5
99B
102
{ACAD_REACTORS
330
81D
102
}
330
81D
100
AcDbCellStyleMap
 90
        3
300
CELLSTYLE
  1
TABLEFORMAT_BEGIN
 90
        5
170
     1
 91
        0
 92
    32768
 62
   257
 93
        1
300
CONTENTFORMAT
  1
CONTENTFORMAT_BEGIN
 90
        0
 91
        0
 92
      512
 93
        0
300

 40
0.0
140
1.0
 94
        5
 62
     0
340
14A
144
0.25
309
CONTENTFORMAT_END
171
     1
301
MARGIN
  1
CELLMARGIN_BEGIN
 40
0.06
 40
0.06
 40
0.06
 40
0.06
 40
0.18
 40
0.18
309
CELLMARGIN_END
 94
        6
 95
        1
302
GRIDFORMAT
  1
GRIDFORMAT_BEGIN
 90
        0
 91
        1
 62
     0
 92
       -2
340
0
 93
        0
 40
0.045
309
GRIDFORMAT_END
 95
        2
302
GRIDFORMAT
  1
GRIDFORMAT_BEGIN
 90
        0
 91
        1
 62
     0
 92
       -2
340
0
 93
        0
 40
0.045
309
GRIDFORMAT_END
 95
        4
302
GRIDFORMAT
  1
GRIDFORMAT_BEGIN
 90
        0
 91
        1
 62
     0
 92
       -2
340
0
 93
        0
 40
0.045
309
GRIDFORMAT_END
 95
        8
302
GRIDFORMAT
  1
GRIDFORMAT_BEGIN
 90
        0
 91
        1
 62
     0
 92
       -2
340
0
 93
        0
 40
0.045
309
GRIDFORMAT_END
 95
       16
302
GRIDFORMAT
  1
GRIDFORMAT_BEGIN
 90
        0
 91
        1
 62
     0
 92
       -2
340
0
 93
        0
 40
0.045
309
GRIDFORMAT_END
 95
       32
302
GRIDFORMAT
  1
GRIDFORMAT_BEGIN
 90
        0
 91
        1
 62
     0
 92
       -2
340
0
 93
        0
 40
0.045
309
GRIDFORMAT_END
309
TABLEFORMAT_END
  1
CELLSTYLE_BEGIN
 90
        1
 91
        1
300
_TITLE
309
CELLSTYLE_END
300
CELLSTYLE
  1
TABLEFORMAT_BEGIN
 90
        5
170
     1
 91
        0
 92
        0
 62
   257
 93
        1
300
CONTENTFORMAT
  1
CONTENTFORMAT_BEGIN
 90
        0
 91
        0
 92
      512
 93
        0
300

 40
0.0
140
1.0
 94
        5
 62
     0
340
14A
144
0.18
309
CONTENTFORMAT_END
171
     1
301
MARGIN
  1
CELLMARGIN_BEGIN
 40
0.06
 40
0.06
 40
0.06
 40
0.06
 40
0.18
 40
0.18
309
CELLMARGIN_END
 94
        6
 95
        1
302
GRIDFORMAT
  1
GRIDFORMAT_BEGIN
 90
        0
 91
        1
 62
     0
 92
       -2
340
0
 93
        0
 40
0.045
309
GRIDFORMAT_END
 95
        2
302
GRIDFORMAT
  1
GRIDFORMAT_BEGIN
 90
        0
 91
        1
 62
     0
 92
       -2
340
0
 93
        0
 40
0.045
309
GRIDFORMAT_END
 95
        4
302
GRIDFORMAT
  1
GRIDFORMAT_BEGIN
 90
        0
 91
        1
 62
     0
 92
       -2
340
0
 93
        0
 40
0.045
309
GRIDFORMAT_END
 95
        8
302
GRIDFORMAT
  1
GRIDFORMAT_BEGIN
 90
        0
 91
        1
 62
     0
 92
       -2
340
0
 93
        0
 40
0.045
309
GRIDFORMAT_END
 95
       16
302
GRIDFORMAT
  1
GRIDFORMAT_BEGIN
 90
        0
 91
        1
 62
     0
 92
       -2
340
0
 93
        0
 40
0.045
309
GRIDFORMAT_END
 95
       32
302
GRIDFORMAT
  1
GRIDFORMAT_BEGIN
 90
        0
 91
        1
 62
     0
 92
       -2
340
0
 93
        0
 40
0.045
309
GRIDFORMAT_END
309
TABLEFORMAT_END
  1
CELLSTYLE_BEGIN
 90
        2
 91
        1
300
_HEADER
309
CELLSTYLE_END
300
CELLSTYLE
  1
TABLEFORMAT_BEGIN
 90
        5
170
     1
 91
        0
 92
        0
 62
   257
 93
        1
300
CONTENTFORMAT
  1
CONTENTFORMAT_BEGIN
 90
        0
 91
        0
 92
      512
 93
        0
300

 40
0.0
140
1.0
 94
        2
 62
     0
340
14A
144
0.18
309
CONTENTFORMAT_END
171
     1
301
MARGIN
  1
CELLMARGIN_BEGIN
 40
0.06
 40
0.06
 40
0.06
 40
0.06
 40
0.18
 40
0.18
309
CELLMARGIN_END
 94
        6
 95
        1
302
GRIDFORMAT
  1
GRIDFORMAT_BEGIN
 90
        0
 91
        1
 62
     0
 92
       -2
340
0
 93
        0
 40
0.045
309
GRIDFORMAT_END
 95
        2
302
GRIDFORMAT
  1
GRIDFORMAT_BEGIN
 90
        0
 91
        1
 62
     0
 92
       -2
340
0
 93
        0
 40
0.045
309
GRIDFORMAT_END
 95
        4
302
GRIDFORMAT
  1
GRIDFORMAT_BEGIN
 90
        0
 91
        1
 62
     0
 92
       -2
340
0
 93
        0
 40
0.045
309
GRIDFORMAT_END
 95
        8
302
GRIDFORMAT
  1
GRIDFORMAT_BEGIN
 90
        0
 91
        1
 62
     0
 92
       -2
340
0
 93
        0
 40
0.045
309
GRIDFORMAT_END
 95
       16
302
GRIDFORMAT
  1
GRIDFORMAT_BEGIN
 90
        0
 91
        1
 62
     0
 92
       -2
340
0
 93
        0
 40
0.045
309
GRIDFORMAT_END
 95
       32
302
GRIDFORMAT
  1
GRIDFORMAT_BEGIN
 90
        0
 91
        1
 62
     0
 92
       -2
340
0
 93
        0
 40
0.045
309
GRIDFORMAT_END
309
TABLEFORMAT_END
  1
CELLSTYLE_BEGIN
 90
        3
 91
        2
300
_DATA
309
CELLSTYLE_END
  0
ENDSEC
  0
EOF
